» » »

Fishbone, Servitude Tabs (ver.1)

Artists:  A B C D E F G H I J K L M N O P Q R S T U V W X Y Z # 

Servitude Tabs (ver.1)

Fishbone Tabs
Rating:
0/5 (0 votes)
Servitude lessons Tabs too difficult? Try these video lessons and learn fast
                All right yalls, I think I got most of this,its definetley not perfect but keep 
in mind I'm only 13

"Servitude"

If anybody out there has any more FB tabs, Freakin' submit 'em! I've checked every tab 
I can think of I I only found about 14!!! AAAH!
It'd also be great if anyone could submit some Infectious Grooves and Buckethead tabs.
Here we go.

Intro/ Riff 1:
on the a)-3's it sounds like he plays a pinch harmonic. Feel free to do so.

e)-----------------------|
b)-----------------------|
g)-----------------------|
d)-----------------------|
a)---3-----3-----3-----3-|
E)-2-----2-----2-----2---|

We gonna' can this riff 2
e)------------------------------------------------------------------|
b)-----------------------------------*not totally-------------------|
g)------------------------------------sure about this---------------|
d)------------------------------------part--------------------------|
a)--6-6-6--4--4-4-4-7--6-6-6--4--4-4-*9-7-6-7-6*--------------------|
E)--4-4-4--2--2-2-4-5--4-4-4--2--2-2-*7-5-4-5-4*--------------------|
                                   P.M.-----------------------------|


Solo thingy
e)------------------------------------------------------------------|
b)------------------------------------------------------------------|
g)---------5-6--8--6-8--9-8-6-5h6-8~~~~~~---------------------------|
d)-----6-7----------------------------------------------------------|
a)-6-7--------------------------------------------------------------|
E)------------------------------------------------------------------|
P.M-----------------------------------------------------------------|


e)------------------------------------------------------------------|
b)------------------------------------------------------------------|
g)---------5-6--8--6-8-9-8-6-5h6p5----------------------------------|
d)-----6-7--------------------------6-------------------------------|
a)-6-7--------------------------------------------------------------|
E)------------------------------------------------------------------|
P.M-----------------------------------------------------------------|

e)------------------------------------------------------------------|
b)------------------------------------------------------------------|
g)------------------------------------------------------------------|
d)---------------11-----13-11-9-8h9/11------------------------------|
a)--------13-14-----------------------------------------------------|
E)-13-14------------------------------------------------------------|
P.M.----------------------------------------------------------------|

e)------------------------------------------------------------------|
b)------------------------------------------------------------------|
g)---------5-6--8--6-8-9-8-6-5h6p5----------------------------------|
d)-----6-7--------------------------6^-dive w/ wammy bar------------|
a)-6-7--------------------------------------------------------------|
E)------------------------------------------------------------------|
P.M-----------------------------------------------------------------|
 Play Riff 2, the first time wit' a plam mute

after the verse
e)------------------|
b)------------------|
g)------------------| play twice,then
d)--6----7----6-----|
a)--4----5----4---5-|
E)----------------3-|

e)-----------------------|
b)-----------------------|
g)-----------------------|
d)--6----7----9---7----6-|
a)--4----5----7---5----4-|
E)-----------------------|

Intro riff, then:

e)------------------------------------------------------------------|
b)------------------------------------------------------------------|
g)---------5-6--8--6-8--9-8-6-5h6-8~~~~~~---------------------------|
d)-----6-7----------------------------------------------------------|
a)-6-7--------------------------------------------------------------|
E)------------------------------------------------------------------|
P.M-----------------------------------------------------------------|


e)------------------------------------------------------------------|
b)------------------------------------------------------------------|
g)---------5-6--8--6-8-9-8-6-5h6p5----------------------------------|
d)-----6-7--------------------------6-------------------------------|
a)-6-7--------------------------------------------------------------|
E)------------------------------------------------------------------|
P.M-----------------------------------------------------------------|

Play the verse riff again, but in the background there is some feedback with a chorus or flanger

this is the riff after he sings "women and children all stay away"
e)------------------------------------------------------------------|
b)------------------------------------------------------------------|
g)------------------------------------------------------------------|
d)------------------------------------------------------------------|
a)-3---4-3-4-6-4-3--------------------------------------------------|
E)-----------------4------------------------------------------------|
P.M-----------------------------------------------------------------|

after the verse
e)------------------|
b)------------------|
g)------------------| play twice,then
d)--6----7----6-----|
a)--4----5----4---5-|
E)----------------3-|

e)-----------------------|
b)-----------------------|
g)-----------------------|
d)--6----7----9---7----6-|
a)--4----5----7---5----4-|
E)-----------------------|

e)-----------------------|
b)-----------------------|
g)-----------------------|
d)-----------------------|
a)---3-----3-----3-----3-|
E)-2-----2-----2-----2---|

Alrighty, I'm really unsure about the solo, but Ill evntually put that up as a separate tab.

Here is the riff after the solo:
e)------------------------------|
b)------------------------------|
g)------------------------------|
d)---5---5----6----5---5--------|
a)-4---4---5-----4---4--------3-|
E)------------------------2-2---|

Then the bass starts in
I dont know the riff going on in the back ground.
after all that stuff:

e)------------------|
b)------------------|
g)------------------| play twice,then
d)--6----7----6-----|
a)--4----5----4---5-|
E)----------------3-|

e)-----------------------|
b)-----------------------|
g)-----------------------|
d)--6----7----9---7----6-|
a)--4----5----7---5----4-|
E)-----------------------|

e)-----------------------|
b)-----------------------|
g)-----------------------|
d)-----------------------|
a)---3-----3-----3-----3-|
E)-2-----2-----2-----2---|

After that an acoustic guitar comes in, the riff souns almost the same as
the verse riff, so just play that.
Then:

e)------------------|
b)------------------|
g)------------------| play twice,then
d)--6----7----6-----|
a)--4----5----4---5-|
E)----------------3-|

e)-----------------------|
b)-----------------------|
g)-----------------------|
d)--6----7----9---7----6-|
a)--4----5----7---5----4-|
E)-----------------------|

e)--------------------------------------------------------|
b)--//////////////////////16\\\\\\\\\\\\\\\\\\\\\\--------|
g)--------------------------------------------------------|
d)--------------------------------------------------------|
a)--------------------------------------------------------|
E)--------------------------------------------------------|
 After this the song fades out to just drums.

Key:h-hammer-on
    p-pull-off
    /-slide up
    \-slide down
    ^-pinch harmonic
    P.M.-plam mute

Okay guys, I'm sorry this tab isnt fantastic, but it ough to get you going in the right 
Again, If anybody out there gots some buckethead/Infectious grooves/Fishbone tabs, 
to be submiting them!
END THE REIGN!!!!
            
Submit corrections

comments powered by Disqus
↑ Back to top | Fishbone Tabs for Servitude. Lyrics for acoustic guitar and electric guitar. Tablatures and chords are parodies/interpretations of the original songs. You may use it for private study, scholarship, research or language learning purposes only