» » »

Fishbone, Lyin' Ass Bitch Bass tabs (ver.1)

Artists:  A B C D E F G H I J K L M N O P Q R S T U V W X Y Z # 

Lyin' Ass Bitch Bass tabs (ver.1)

Fishbone Tabs
 Rating:
4/5 (4 votes)
Lyin' Ass Bitch lessons Tabs too difficult? Try these video lessons and learn fast
1
                m  = muted note (optional)
/,\= slide

Bridge (or whatever it is called)
g|-----------------------|
d|-----------------------|
a|-----4---4-----4-5-4---|
e|-5-5---5---7-7-------7-|
  
Verse
         m m       m m
g|----------------------------------------------|-
d|---------------6-----4------------------------|- 
a|-----7-4-4-4-4---4-4---5----------------------|- Repeat bar starting
e|-5-5---------------------7-7-0-0-0-2-4-4-2-4-2/5 with a slide from 2 to 5.

Chorus

g|-------------------------7-6-4-------------------|
d|-------------------4-7-4-------7-5-4-0-5-4-------|
a|-----4-5-7-7-4-7-5-------------------------5-----|
e|-5-5-----------------------------------------7-0-|

g|-------------------------7-6-4-----------------------|
d|-------------------4-7-4-------7-5-4-0-5-4-----------|
a|-----4-5-7-7-4-7-5-------------------------7-5-4-----|
e|-5-5---------------------------------------------7-0-|


Middle Part (with the sax riff joining in(actually it' s only the lead guitar))

g|---------------------------|
d|---------------------------|
a|---------4---4-----4-5-4---|
e|-5-5-5-5---5---7-7-------7-|

Closing

g|---------------------------|
d|---------------------------|
a|-0-0-4-4-5-5-6-6-7---------|
e|-------------------8\5--8--|
            
Submit corrections

comments powered by Disqus
↑ Back to top | Fishbone Bass for Lyin' Ass Bitch. Lyrics for acoustic guitar and electric guitar. 1 Tablatures and chords are parodies/interpretations of the original songs. You may use it for private study, scholarship, research or language learning purposes only