» » »

Fishbone, Ghetto Soundwave Tabs (ver.1)

Artists:  A B C D E F G H I J K L M N O P Q R S T U V W X Y Z # 

Ghetto Soundwave Tabs (ver.1)

Fishbone Tabs
 Rating:
4/5 (4 votes)
Ghetto Soundwave lessons Tabs too difficult? Try these video lessons and learn fast
                
Intro: A5                     A5                E5      

-||----------------------|---------------------------||-----------------------
-||----------------------|---------------------------||-----------------------
-||-*--------------------|----------------------9--*-||-----------------------
-||-*--7--7----x-7--7----|----7--7----x-7--7----9--*-||-----------------------
-||----7--7----x-7--7----|----7--7----x-7--7----7----||-----------------------
-||----5--5----x-5--5----|----5--5----x-5--5---------||-----------------------
                                                                              
       A5                E5        A5                E5

-||---------------------------|---------------------------||------------------
-||---------------------------|---------------------------||------------------
-||----------------------9----|----------------------9----||------------------
-||----7--7----x-7--7----9----|----7--7----x-7--7----9----||------------------
-||----7--7----x-7--7----7----|----7--7----x-7--7----7----||------------------
-||----5--5----x-5--5---------|----5--5----x-5--5---------||------------------

       A5                E5        A5    D5 A5 E5 A5 D5 A5      
                                                                        
-||---------------------------|------------------------------||------------------
-||---------------------------|------------------------------||------------------
-||----------------------9----|----------7-----9-----7-------||------------------
-||----7--7----x-7--7----9----|----7--7--7--7--9--7--7--7----||------------------
-||----7--7----x-7--7----7----|----7--7--5--7--7--7--5--7----||------------------
-||----5--5----x-5--5---------|----5--5-----5-----5-----5----||------------------

Verse:                 

                       D  A 
          
-||----------------------------|---------------------------||------------------
-||---------------x-x--7--5----|---------------------------||------------------
-||---------------x-x--7--6----|---------------------------||------------------
-||----5-5-5-5----x-x--7--7----|----5-5-5-5----5^7--7~~----||------------------
-||----------------------------|---------------------------||------------------
-||----------------------------|---------------------------||------------------



-||---------------------------|---------------------------|------------------
-||---------------------------|---------------------------|------------------
-||---------------------------|---------------------------|------------------
-||---------------------------|---------------------------|------------------
-||---------------------------|---------------------------|------------------
-||---------------------------|---------------------------|------------------

-||---------------------------|---------------------------|------------------
-||---------------------------|---------------------------|------------------
-||---------------------------|---------------------------|------------------
-||---------------------------|---------------------------|------------------
-||---------------------------|---------------------------|------------------
-||---------------------------|---------------------------|------------------

-||---------------------------|---------------------------|------------------
-||---------------------------|---------------------------|------------------
-||---------------------------|---------------------------|------------------
-||---------------------------|---------------------------|------------------
-||---------------------------|---------------------------|------------------
-||---------------------------|---------------------------|------------------

-||---------------------------|---------------------------|------------------
-||---------------------------|---------------------------|------------------
-||---------------------------|---------------------------|------------------
-||---------------------------|---------------------------|------------------
-||---------------------------|---------------------------|------------------
-||---------------------------|---------------------------|------------------
            
Submit corrections

comments powered by Disqus
↑ Back to top | Fishbone Tabs for Ghetto Soundwave. Lyrics for acoustic guitar and electric guitar. Tablatures and chords are parodies/interpretations of the original songs. You may use it for private study, scholarship, research or language learning purposes only