» » »

Freddie's Dead Tabs (ver.1)

Artists:  A B C D E F G H I J K L M N O P Q R S T U V W X Y Z # 

Freddie's Dead Tabs (ver.1)

Fishbone
Rating:
0/5 (0 votes)

Hard to play? Try these video lessons and learn fast.
                
Intro:

-||------------------------------------|-----------------------------||-
-||------------------------------------|-----------------------------||-
-||----6-6--6--------------------------|----6-6--6----6-6--6----6----||-
-||----6-6--6----4/6--4--2--4--2-------|----6-6--6----6-6--6----6----||-
-||----4-4--4---------------------4----|----4-4--4----4-4--4----4----||-
-||------------------------------------|-----------------------------||-

-||----------------------------------|----------------------------------||-
-||----------------------------------|----------------------------------||-
-||----------------------------------|----------------------------------||-
-||----4/6--4--2--4--2-----4/6--4----|---------------?------------------||-
-||---------------------4------------|----------------------------------||-
-||----------------------------------|----------------------------------||-
                                                                              
-||----------------------------------|------------------------------------||-
-||----------------------------------|------------------------------------||-
-||----------------------------------|------------------------------------||-
-||----------2----------------2~~----|----------2-------------------------||-
-||----0--4-----4----0--2--4---------|----0--4-----4----0--2^0------------||-
-||----------------------------------|----------------------------2--0----||-
            
Hard to play? Try these video lessons and learn fast. | Correct




comments powered by Disqus
↑ Back to top | Tablatures and chords are parodies/interpretations of the original songs. You may use it for private study, scholarship, research or language learning purposes only