>
 >
Alcoholic 1

Alcoholic 1 Bass Tabs

Fishbone - Alcoholic 1 chords, tabs, tablatures, lyrics

Guitar lessons | Add/correct | Request | Top 50 tabs Artists:  A B C D E F G H I J K L M N O P Q R S T U V W X Y Z 0-9

Alcoholic 1 Bass Tabs – Fishbone

CD, Sheet music, Poster

Do you like Alcoholic 1? Share with your friends now
Bass TabsBass Tabs v2
Part A
G--------------------------------------------------
D--------------------------------------------------
A---------22--5--57575-----------------------------
E-12/0--0----------------------------------------------------------------
Part B
G--------------------------------------------------
D--------------------------------------------------
A--- 22 5 5h7 x 5h7--------------------------
E-0------------------------ 7----------------------------------------
Part C
G--------------------------------------------------
D--------------------------------------------------
A----22--555h7b5----------------------------
E--0---------------------7-------------------------------------------
Part D
G--------------------------------------------------
D-------- 9999 7777------------------------------------------
A----7777---------- 9999------------------
E------------------------------------------------------------------





Comments


Popular Fishbone tabs & chords
Bonin' In The Boneyard 1 Bass Tabs
Deep Inside Bass Tabs
Ghetto Soundwave Bass Tabs
Lyin' Ass Bitch Bass Tabs
Seminary Chords
Skankin' To The Beat Chords
AIDS & Armageddon Tabs
Ghetto Soundwave Tabs
Change Ukulele
Ma And Pa Ukulele


Song lyrics



↑ Back to top | Tablatures and chords are parodies/interpretations of the original songs. You may use it for private study, scholarship, research or language learning purposes only
© 2014 AZChords.com Contact us | Privacy policy | DMCA | Add/correct tabs | Request tabs | Top 50 tabs