» » »

Alcoholic Bass tabs (ver.2)

Artists:  A B C D E F G H I J K L M N O P Q R S T U V W X Y Z # 

Alcoholic Bass tabs (ver.2)

Fishbone
Rating:
0/5 (0 votes)

Hard to play? Try these video lessons and learn fast.
                FISHBONE-ALCOHOLIC 

Part A
G--------------------------------------------
D--------------------------------------------
A---------22--5--57575-----------------------
E-12/0--0------------------------------------

Part B
G--------------------------------------------
D--------------------------------------------
A----22-5-5h7-x-5h7--------------------------
E-0-------------------------7----------------

Part C
G--------------------------------------------
D--------------------------------------------
A----22--5—55h7b5----------------------------
E--0---------------------7-------------------

Part D
G--------------------------------------------
D---------9999-7777--------------------------
A----7777-----------9999---------------------
E--------------------------------------------
            
Hard to play? Try these video lessons and learn fast. | Correct




comments powered by Disqus
↑ Back to top | Tablatures and chords are parodies/interpretations of the original songs. You may use it for private study, scholarship, research or language learning purposes only