» » »

AIDS & Armageddon Tabs (ver.1)

Artists:  A B C D E F G H I J K L M N O P Q R S T U V W X Y Z # 

AIDS & Armageddon Tabs (ver.1)

Fishbone
Rating:
0/5 (0 votes)

Hard to play? Try these video lessons and learn fast.
                Label:  Hollywood Records 2000



Fishbone are one of the best, most eclectic, influential, and yet criminally underrated bands EVER!
If you miss out on Fishbone, you just miss out and its your fault!

The Intro:

E---------|
B---------|
G---------|
D--7-\-5--|     Listen to song – repeat as/when needed 
A--7-\-5--|
E--5-\-3--|    


Main Riff (the Funky, Bluesy, Reggae Riff):

E----------------------------------------|
B--8--8----------------------------------|
G--7^-7--5-7P5---------------------------|
D--------------7--5-5-5H7-----5----------|
A-------------------------5H7---3H5P3----|
E--------------------------------------5-|

Bridge:

E-------------|
B-------------|
G-------------|
D-------------|      Listen – repeat as/when needed  
A-------------|
E--0H3H5P3P0--|

Chorus (Reggae Beat):

I’m not 100% on the chorus but you either alternate between
C and D OR G and D
(If someone gets that specifically, let me know pleeze!)

The Heavier Part:

A-A-G-A-A-G-A-A-G-A

Middle Part:

E----------|-----------|-----------|-------------|
B----------|-----------|-----------|-------------|
G----------|-----------|-----------|-------------|
D--------3-|-------3-5-|---------3-|---------3-5-|
A------5---|-----5-----|-5-----5---|-5-----5-----|
E--3-5-----|-3-5-------|---3-5-----|---3-5-------|

Repeat that as needed

There’s a part near the end where he does bends on the
5th or 7th fret on the G string. I think!?  Its in the 
background so you can get away with not playing it.

Listen to the song for the song structure.  You’ll be able to recognize which parts are which if you play with the tab and listen to the song.

Another great song from FISHBONE, the originators of the skareggaefunkpunkhiphophardcore thang!
            
Hard to play? Try these video lessons and learn fast. | Correct




comments powered by Disqus
↑ Back to top | Tablatures and chords are parodies/interpretations of the original songs. You may use it for private study, scholarship, research or language learning purposes only