» » »

Fischer Z, Room Service Bass tabs (ver.1)

Artists:  A B C D E F G H I J K L M N O P Q R S T U V W X Y Z # 

Room Service Bass tabs (ver.1)

Fischer Z Tabs
 Rating:
4/5 (4 votes)
Room Service lessons Tabs too difficult? Try these video lessons and learn fast
1
                
I have written this Tab without any notation
Listen to the music and get the feeling how to play!
 
I've done my best, but I'm not sure that everything
is correct? I hope you would like this song, 
Have fun, and enjoy it!!!
If you have any corrections, please send 


Intro
							2x
G|-----------------------------------9--------------------| 
D|4:*-------7------------9---------9---------------------*|
A|4:*-----7------------9-------0-7-----7-----------------*|
E|------5-----5----0-7-----7---------------00-0-0-5-0-----|


Verse 1

G|----------------------------------9-------------------| 
D|---------7-----------9---------9----------------------|
A|-------7-----------9-------0-7------7-----------------|
E|-----5-----5---0-7-----7---------------00-0-0-5-0-----|

G|----------------------------------9-------------------| 
D|---------7-----------9---------9----------------------|
A|-------7-----------9-------0-7------7-----------------|
E|-----5-----5---0-7-----7---------------00-0-0-5-0-----|

G|-----------------------------------7------------------| 
D|---------7------------10---------7-------------7------|
A|-------7-----------10--------0-5-----5-------7--------|
E|-----5-----5---0-8-------8---------------0-5-----5----|

G|------------------------7-----------------------------| 
D|-----------10---------7-------------------------------|
A|--------10--------0-5-----5---0-5/7---7H8P7h8P7-------|
E|----0-8-------8---------------------------------------|

Chorus 1
				3x
G|--------------------------------| 
D|*--------------0-2-------------*|
A|*--0-0-3-0---------------------*|
E|-----------3-0------0-00-3H5----|

G|------------------------------| 
D|--------------0-2-------------|
A|--0-0-3-0---------------------|
E|-----------3-0------0-00-3/5--|

Verse 2   
Chorus 2 
Verse 3	- Keyboard Solo
Chorus 3
Verse 4
Chorus 4 (repeat Chorus until fade-out)


    #
|----|			|----|
|*--*|  = Measure	|4:--|  = Time
|*--*|    Repeats	|4:--|    Signatures
|----|	(#=Num Repeats)	|----|

+ = Tie		^ = Triplet	\X = Slide to nowhere
H = Hammer On	/ = Slide down	 > = Bend
P = Pull Of	\ = Slide up	 R = Rest
~ = Trill	s = Slap	 p = Pop
            
Submit corrections

comments powered by Disqus
↑ Back to top | Fischer Z Bass for Room Service. Lyrics for acoustic guitar and electric guitar. 1 Tablatures and chords are parodies/interpretations of the original songs. You may use it for private study, scholarship, research or language learning purposes only