» » »

Pretty Paracetamol Chords (ver.1)

Artists:  A B C D E F G H I J K L M N O P Q R S T U V W X Y Z # 

Pretty Paracetamol Chords (ver.1)

Fischer Z
Rating:
0/5 (0 votes)

Hard to play? Try these video lessons and learn fast.
                -------------------------------------------------------------------------------
-------------------------------------------------------------------------------

Tuning: Standard


     Pretty paracetamol you soothe my aching brow, 

     Am                     E
e|---------------------------------------------------------------------------|
B|---1-----------------------------------------------------------------------|
G|---2----------------------1------------------------------------------------|
D|---2----------------------2------------------------------------------------|
A|--------------------------2------------------------------------------------|
E|---------------------------------------------------------------------------|

   I need you when my head is spinning round,

     D                                        Am         E
e|---2-----------------------------------------------------------------------|
B|---3-----------------------------------------1-----------------------------|
G|---2-----------------------------------------2----------1------------------|
D|---------------------------------------------2----------2------------------|
A|--------------------------------------------------------2------------------|
E|---------------------------------------------------------------------------|

     I look into the looking glass but none of them is me,

     Am                                E
e|---------------------------------------------------------------------------|
B|---1-----------------------------------------------------------------------|
G|---2---------------------------------1-------------------------------------|
D|---2---------------------------------2-------------------------------------|
A|-------------------------------------2-------------------------------------|
E|---------------------------------------------------------------------------|

   It takes at least an hour to pin me down,

      D                                       Am          E
e|----2----------------------------------------------------------------------|
B|----3----------------------------------------1-----------------------------|
G|----2----------------------------------------2----------1------------------|
D|---------------------------------------------2----------2------------------|
A|--------------------------------------------------------2------------------|
E|---------------------------------------------------------------------------|

        First impressions often lie,

      F                             Dm
e|----1------------------------------1---------------------------------------|
B|----1------------------------------3---------------------------------------|
G|----2------------------------------2---------------------------------------|
D|----3----------------------------------------------------------------------|
A|---------------------------------------------------------------------------|
E|---------------------------------------------------------------------------|

       They often fool the naked eye.

     
      F                              G
e|----1------------------------------3---------------------------------------|
B|----1----------------------------------------------------------------------|
G|----2----------------------------------------------------------------------|
D|----3----------------------------------------------------------------------|
A|-----------------------------------2---------------------------------------|
E|-----------------------------------3---------------------------------------|

Am                                 E   
I hold you gently on my tongue and then you drift away,
D                                      Am     E
It's hard to read the writing on the label,
Am                                  E
I force my hands out sideways but I can't resist the strain,
D                                      Am     E
And it don't help me, no it don't help me,
F                           Dm
First impressions often lie,
F                            G
They often fool the naked eye.

I think I recognize a friendly face I've seen before, (don't you despair)
It's moving far too quickly to be sure,
Tangled in a web of twisted memories and lies, (There's no one there)
I'm fighting for a reason to go on.

Pretty paracetamol you soothe my aching brow,
I need you when my heard is spinning round,
I multiply myself by two in the mirror of the wall,
But id don't help me, no it don't help me,
First impressions often lie,
They often fool the naked eye.

I think I've lost control, I think I've lost control,
I think I've lost control, I think I've lost control



===============================================================================
            
Hard to play? Try these video lessons and learn fast. | Correct




comments powered by Disqus
↑ Back to top | Tablatures and chords are parodies/interpretations of the original songs. You may use it for private study, scholarship, research or language learning purposes only