>
 >
Emmylou

Emmylou Guitar Tabs

First Aid Kit - Emmylou chords, tabs, tablatures, lyrics

Guitar lessons | Add/correct | Request | Top 50 tabs Artists:  A B C D E F G H I J K L M N O P Q R S T U V W X Y Z 0-9

Emmylou Guitar Tabs – First Aid Kit

CD, Sheet music, Poster

Do you like Emmylou? Share with your friends now
ChordsChords v2TabsUkulele
-------------------------------------------------------------------------------
-------------------------------------------------------------------------------

Tuning: Capo 6th fret

This is a live version as seen on Conan OBrian with travis picking. Enjoy.

  C/G                                  Em
e|-------3-------|-----------3--------|----------0--------|----------0--------|
B|-3-------------|--3-----------------|-2-----------------|-2-----------------|
G|----2-------2--|------0h2--------0--|-------2-------2---|-------2---------0-|
D|---------0-----|--------------0-----|-------------0-----|--------------0----|
A|-------------1-|-------1------------|-------0---------0-|-------0-----------|
E|---------------|--------------------|-------------------|-------------------|
  Am                                 Fmaj7
e|----------0------|--------0-------|-1--------1---------|-1-------1----------|
B|-0---------------|--0-------------|--------------------|--------------------|
G|-----2-------2---|-----2------0h2-|----2----------2----|-----2---------0----|
D|-----------2-----|-----------2----|-------------2------|------------2-------|
A|-----1---------1-|-----1----------|----1------------1--|-----1-----------0--|
E|-----------------|----------------|--------------------|--------------------|
                                                                     oh the...

                    C/G               Em                 Am
e|                  |---------3-------|----------0-------|--------0-----------|
B|                  |-3---------------|--2---------------|-0------------------|
G|                  |-----2---------0-|------2--------0--|----2---------2-----|
D|                  |------------0----|------------0-----|-----------2--------|
A|                  |-----1-----------|------0-----------|----1---------------|
E|                  |-----------------|------------------|--------------------|
                      bitter            winds         are   coming       

  Fmaj7             C/G                Em                 Am
e|-1--------1-------|---------3-------|----------0-------|---------0-----------|
B|------------------|-3---------------|-2----------------|-0-------------------|
G|----2----------0--|-----2---------0-|-----2---------0--|----2-----------2----|
D|------------0-----|------------0----|------------0-----|-------------2-------|
A|----1-------------|-----1-----------|-----0------------|----1----------------|
E|------------------|-----------------|------------------|---------------------|
   In          and   Im  already      missing    the      summer


   Fmaj             C/G
e|-1--------1------|----------------------------------------------------------|
B|-----------------|----------------------------------------------------------|
G|---2----------0--|----------------------------------------------------------|
D|-----------2-----|----------------------------------------------------------|
A|---1-------------|----------------------------------------------------------|
E|-----------------|----------------------------------------------------------|
                    Stockholms... ect.... last line of verse: C X1-> Em X1-> G X2 ->







Chorus:
  C/G                                        Fmaj7
e|------------3--------|-----------3--------|--1--------1-------|-1---------1--------|
B|--3------------------|---3----------------|-------------------|--------------------|
G|------2----------2---|-------2----------0-|-----2-----------2-|----2-------------2-|
D|--------------0------|--------------0-----|--------------2----|---------------2----|
A|------1------------1-|-------1------------|-----1-------------|----1---------------|
E|---------------------|--------------------|-------------------|--------------------|
       Ill be  your     Emmylou      and     Ill  be    your     June           if


  Am                                  G
e|---------0------|-----------0------|--3-------3----------|---3--------3------------|
B|-0--------------|--0---------------|---------------------|-------------------------|
G|----2---------2-|-----2----------0-|-----0-----------0---|------0-------------0----|
D|-----------2----|-------------0----|-------------0-------|---------------0---------|
A|----1-----------|-----1------------|-----0-------------0-|------0------------------|
E|----------------|------------------|---------------------|-------------------------|
   youll   be my   Graham  and my     Johnny                too.            No Im
 
C/G                                        Fmaj7
e|------------3--------|-----------3--------|--1--------1-------|-1---------1--------|
B|--3------------------|---3----------------|-------------------|--------------------|
G|------2----------2---|-------2----------0-|-----2-----------2-|----2-------------2-|
D|--------------0------|--------------0-----|--------------2----|---------------2----|
A|------1------------1-|-------1------------|-----1-------------|----1---------------|
E|---------------------|--------------------|-------------------|--------------------|
  not                     askin                       much of   you            Just
 


Am                    G                  C/G
e|-----------0--------|--3-------3-------|-----------3---------|---3-------3--------|
B|-0------------------|------------------|--3------------------|--------------------|
G|-----2-----------0--|----0-----------0-|------2----------2---|------2----------2--|
D|--------------0-----|-------------0----|--------------0------|--------------0-----|
A|-----1--------------|----0-------------|------1------------1-|------1-------------|
E|--------------------|------------------|---------------------|--------------------|
   sing        little   darlin  sing with  me






Bridge:

Am                                     G        
e|---------0---------|---------0-------|-3--------3----------|-3------3--------------|
B|-0-----------------|-0---------------|---------------------|-----------------------|
G|----2----------2---|----2----------0-|----0-----------0----|----0-----------0------|
D|------------2------|------------0----|------------0--------|------------0----------|
A|----1------------1-|----1------------|----0--------------0-|----0------------------|
E|-------------------|-----------------|---------------------|-----------------------|
          And          yes          I   might                have          



  Fmaj7                                  C
e|-1--------1-------|-1--------1--------|------------------|---------------------|
B|------------------|-------------------|--3--------3------|--3-----------3------|
G|----2-----------2-|----2------------0-|----0h2---------0-|-----0h2-----------2-|
D|------------2-----|--------------2----|-------------0----|----------------0----|
A|----1-------------|----1--------------|-----1------------|------1--------------|
E|------------------|-------------------|------------------|---------------------|
           Lied                     to    you                 ect...



Oh the bitter winds are coming in
And I'm already missing the summer
Stockholm's cold but I've been told
I was born to endure this kind of weather
When it's you I find like a ghost in my mind
I am defeated and I gladly wear the crown

I'll be your Emmylou and I'll be your June
If you'll be my Gram and my Johnny too
No, I'm not asking much of you
Just sing little darling, sing with me

Now so much I know that things don't grow
If you don't bless them with your patience
And I've been there before I held up the door
For every stranger with a promise

But I'm holding back, that's the strength that I lack
Every morning keeps returning at my window
And it brings me to you and I won't just pass through
But I'm not asking for a storm

I'll be your Emmylou and I'll be your June
If you'll be my Gram and my Johnny too
No, I'm not asking much of you
Just sing little darling, sing with me

And yes I might have lied to you
You wouldn't benefit from knowing of the truth
I was frightened but I held fast
I need you now at long last

I'll be your Emmylou and I'll be your June
you'll be my Gram and my Johnny too
No, I'm not asking much of you
Just sing little darling, sing with me

I'll be your Emmylou and I'll be your June
If you'll be my Gram and my Johnny too
No, I'm not asking much of you
Just sing little darling, sing with me
Just sing little darling, sing with me





Comments


Popular First Aid Kit tabs & chords
In The Morning Chords
This Old Routine Chords
Heavy Storm Tabs
Youre Not Coming Home Tonight Tabs
Heavy Storm Ukulele
In The Hearts Of Men Ukulele
King Of The World Ukulele
To A Poet Ukulele
When I Grow Up Ukulele
Wolf Ukulele


Song lyrics



↑ Back to top | Tablatures and chords are parodies/interpretations of the original songs. You may use it for private study, scholarship, research or language learning purposes only
© 2014 AZChords.com Contact us | Privacy policy | DMCA | Add/correct tabs | Request tabs | Top 50 tabs