>
 >
Two Sides

Two Sides Guitar Tabs

Firehouse - Two Sides chords, tabs, tablatures, lyrics

Guitar lessons | Add/correct | Request | Top 50 tabs Artists:  A B C D E F G H I J K L M N O P Q R S T U V W X Y Z 0-9

Two Sides Guitar Tabs – Firehouse

CD, Sheet music, Poster

Do you like Two Sides? Share with your friends now
Tabs
 Firehouse – two sides
By Sanjeev George and Thomas George


At least 2 guitars are used. This can be played with one

Verse 1
One man is black, one man is white
One works by the light of the day and the other one works at night
They both live so differently but they are so much alike
They both want the very same thing just to have a better way of life

Pre chorus
You know you can't take sides 'cause no one's wrong or right
So don't make up you mind take another look before you decide

Chorus:
'Cause there are two sides to every story
Two different ways of looking at exactly the same thing
Two sides to every story
So don't make up your mind 'til ya hear the story from me

Verse 2
One nation's weak, one nation's strong
Two people side by side but they just can't get along
All war's too big ya know, no war's too small
One wants just a little piece and the other one wants it all

Pre chorus
You know you can't take sides 'cause no one's wrong or right
So don't make up you mind take another look before you decide

Chorus
'Cause there are two sides to every story
Two different ways of looking at exactly the same thing
Two sides to every story
Don't make up you mind there are two sides you'll see


Solo not tabbed

Verse 3
Oh so let me tell it to you straight you gotta open up your eyes
You'll see perspective's everything and you just might change your mind

 back to Chorus till end 


Intro

e|-----------------------------------------------------------|
B|-----------------------------------------------------------|
G|---10-b12r10--8—10p8----8--------------8-------------------|
D|---------------------10---------8--------10---10--10-------|
A|---------------------------8h10---8h10--------10--10-------|
E|----------------------------------------------8---8--------|

e|--------------------------------------------|
B|--------------------------------------------|
G|---10-b12r10--8-10p8----8-------------------|
D|---------------------10----8---10--10-------|
A|---------------------------8---8---10-------|
E|---------------------------6-------8--------|


e|---------------------------------------------------------------|
B|---------------------------------------------------------------|
G|---10-b12r10--8-10p8----8--------------8-----------------------|
D|---------------------10---------8--------10---8-9-10-----------|
A|---------------------------8h10---8h10-------------------------|
E|---------------------------------------------------------------|

e|------------------------------------------|
B|------------------------------------------|
G|---10-b12r10--8-10p8----8-----------------|
D|---------------------10---8`--------------|
A|--------------------------8`--------------|
E|--------------------------6~--------------|


Verses
e|----------------------------------------------------------------------|
B|----------------------------------------------------------------------| 
G|---5--x-x-x---5-8---x-x-x-8-3---x-x-x-3---------3----5----------------| Played
D|---5--x-x-x---5-8---x-x-x-8-3---x-x-x-3-3---3/5---5--5----------------| twice
A|---3--x-x-x---3-6---x-x-x-6-1---x-x-x-1-3------------3----------------|
E|----------------------------------------1-----------------------------|


e|--------------------------------------------|
B|--------------------------------------------|
G|-------5-----3-----8-----5------------------|
D|-------5-----3-----8-----5---3h5p3-1--------|
A|---3-3-3-3-3-1-1-1-6-6-6-3------------------|
E|--------------------------------------------|
     . .   . .   . .   . .  

e|------------------------------------------|
B|------------------------------------------|
G|------------3-----8-----5-------3-5-------|
D|-------3----3-----8-----5---3h5-----------|
A|-------3----1-1-1-6-6-6-3-----------------|
E|---1-1-1-1-1------------------------------|
     . .   . .  . .   . .

e|--------------------------------------------|
B|--------------------------------------------|
G|-------5-----3-----8-----5------------------|
D|-------5-----3-----8-----5---3h5p3-1--------|
A|---3-3-3-3-3-1-1-1-6-6-6-3------------------|
E|--------------------------------------------|
     . .   . .   . .   . .


e|--------------------------------------|
B|--------------------------------------|
G|------------3-----8-----5-------------|
D|-------3----3-----8-----5-------------|
A|-------3----1-1-1-6-6-6-3-------------|
E|---1-1-1-1-1--------------------------|
     . .   . .  . .   . . 


Pre chorus
    U know u can’t take sides………                           So u make up your mind……..
e|-----------------------------------------------------------------------------------------|
B|-----------------------------------------------------------------------------------------|
G|---3-----------8-----5-----5-----3-----8-----5---5-4-3----5----3-------------------------|
D|---3-----3-----8-----5-----5-----3-----8-----5---5-4-3----5----3----3----5---------------|
A|---1-----3-----6-----3-3-3-3-3-3-1-1-1-6-6-6-3---3-2-1----3----1----3----5---------------|
E|---------1----------------------------------------------------------1----3-3-3-3-3-3-3-3-|
                         . .   . .   . .   . .                               . . . . . . .


                 Coz’ there are……
e|---------------------------------------|
B|---------------------------------------|
G|---8-8---7---3-5-----------------------|
D|---8-8---7---3-5-----------------------|
A|---6-6---5---1-3-----------------------|
E|---------------------------------------|


Chorus

e|----------------------------------------------------------------------------|
B|----------------------------------------------------------------------------|
G|-------5-5-5-----5-5-5-----3h5-----5-5---3-------3h5-5-----5-----5----------|Play twice
D|-------5-5-5-----5-5-5-3h5---------5-5---3-5—3h5-----5-----5-----5----------|
A|---3-3-3-3-3-3-3-3-3-3---------3-3-3-3---1-5---------3-3-3-3-3-3-3-3-3------|
E|-------------------------------------------1--------------------------------|
     . .       . .               . .                     . .   . .   . .


   Don’t make up your mind…………….
e|-----------------------------------|
B|-----------------------------------|
G|-------------3---5-----------------|
D|---5---3-----3---5-----------------|
A|---5---3-----1---3-----------------|
E|---3---1---------------------------|


e|--------------------------------------------|
B|--------------------------------------------|
G|-------5-----3-----8-----5------------------|
D|-------5-----3-----8-----5---3h5p3-1--------|
A|---3-3-3-3-3-1-1-1-6-6-6-3------------------|
E|--------------------------------------------|
     . .   . .   . .   . .


e|------------------------------------------|
B|------------------------------------------|
G|------------3-----8-----5-------3-5-------|
D|-------3----3-----8-----5---3h5-----------|
A|-------3----1-1-1-6-6-6-3-----------------|
E|---1-1-1-1-1------------------------------|
     . .   . .  . .   . .  

 
e|-------------------------------------|
B|-------------------------------------|
G|---10b12r10-10-8—10p8----8-----------|
D|----------------------10---10v-------|
A|-------------------------------------|
E|-------------------------------------|

Then verse 2, exactly like verse 1

Slight variation in 2nd chorus “don’t make u your mind………”

   Don’t make up your mind…………….
e|--------------------------------|
B|--------------------------------|
G|-------------3---5--------3h5---|
D|---5---3-----3---5----3h5-------|
A|---5---3-----1---3--------------|
E|---3---1------------------------|

   Don’t make up your mind…………….
e|-----------------------------------|
B|-----------------------------------|
G|-------------3---5-----------------|
D|---5---3-----3---5-----------------|
A|---5---3-----1---3-----------------|
E|---3---1---------------------------|


Play intro once after the 2nd chorus

Solo 

e|--------------------------------------------|
B|--------------------------------------------|
G|-------5-----3-----8-----5------------------|
D|-------5-----3-----8-----5---3h5p3-1--------|
A|---3-3-3-3-3-1-1-1-6-6-6-3------------------|
E|--------------------------------------------|
     . .   . .   . .   . .


e|--------------------------------------|
B|--------------------------------------|
G|------------3-----8-----5-------------|
D|-------3----3-----8-----5-------------|
A|-------3----1-1-1-6-6-6-3-------------|
E|---1-1-1-1-1--------------------------|
     . .   . .  . .   . .


e|-----------------------------------------------------------------------------------------|
B|-----------------------------------------------------------------------------------------|
G|---3-----------8-----5-----5-----3-----8-----5---5-4-3----5----3-------------------------|
D|---3-----3-----8-----5-----5-----3-----8-----5---5-4-3----5----3----3----5---------------|
A|---1-----3-----6-----3-3-3-3-3-3-1-1-1-6-6-6-3---3-2-1----3----1----3----5---------------|
E|---------1----------------------------------------------------------1----3-3-3-3-3-3-3-3-|
                         . .   . .   . .   . .                               . . . . . . .

e|-------------------------|
B|-------------------------|
G|-------3---5-------------|
D|---5---3---5-------------|
A|---5---1---3-------------|
E|---3---------------------|



Verse 3
e|----------------------------------------------------------------------|
B|----------------------------------------------------------------------| 
G|---5--x-x-x---5-8---x-x-x-8-3---x-x-x-3---------3----5----------------| Played
D|---5--x-x-x---5-8---x-x-x-8-3---x-x-x-3-3---3/5---5--5----------------|  twice
A|---3--x-x-x---3-6---x-x-x-6-1---x-x-x-1-3------------3----------------|
E|----------------------------------------1-----------------------------|


e|--------------------------------------------|
B|--------------------------------------------|
G|-------5-----3-----8-----5------------------|
D|-------5-----3-----8-----5---3h5p3-1--------|
A|---3-3-3-3-3-1-1-1-6-6-6-3------------------|
E|--------------------------------------------|
     . .   . .   . .   . .


e|----------------------------|
B|----------------------------|
G|------------3-----8---------|
D|-------3----3-----8---------|
A|-------3----1-1-1-6---------|
E|---1-1-1-1-1----------------|
     . .   . .  . .
Pause

Then chorus twice

Play

e|-----------------------------------------------------------|
B|-----------------------------------------------------------|
G|---10-b12r10--8—10p8----8--------------8-------------------|
D|---------------------10---------8--------10---10--10-------|
A|---------------------------8h10---8h10--------10--10-------|
E|----------------------------------------------8---8--------|

e|--------------------------------------|
B|--------------------------------------|
G|---10-b12r10--8—10p8----8-------------|
D|---------------------10---8-----10~---|
A|--------------------------------10~---|
E|--------------------------------8~----|END

| b  bend to
| r  release
| h  hammer-on
| p  pull-off
| v  vibrato
| x  Mute note
| ~  Let ring
| .  Mute with fretting hand after playing

Hope it’s correct. Please rate





Comments


Popular Firehouse tabs & chords
Don't Treat Me Bad Chords
Love Of A Lifetime Chords
No One At All Chords
You Are My Religion Chords
Call Of The Night Tabs
I Live My Life For You (Solo Ver 2) Tabs
If It Changes Tabs
More Than Words Can Say Tabs
The Day The Week And The Weather Ukulele
You Are My Religion Ukulele


Song lyrics



↑ Back to top | Tablatures and chords are parodies/interpretations of the original songs. You may use it for private study, scholarship, research or language learning purposes only
© 2014 AZChords.com Contact us | Privacy policy | DMCA | Add/correct tabs | Request tabs | Top 50 tabs