>
 >
Shake And Tumble

Shake And Tumble Guitar Tabs

Firehouse - Shake And Tumble chords, tabs, tablatures, lyrics

Guitar lessons | Add/correct | Request | Top 50 tabs Artists:  A B C D E F G H I J K L M N O P Q R S T U V W X Y Z 0-9

Shake And Tumble Guitar Tabs – Firehouse

CD, Sheet music, Poster

Do you like Shake And Tumble? Share with your friends now
Tabs
--------------------------------------------------------------------------
--------------------------------------------------------------------------

Tuning: Down 1/2 a step - Eb,Ab,Db,Gb,Bb,eb

Couldnt find any tabs of this song on the net, which was a bit annoying as
it's a great song! The solo may not be 100% correct, but it's not far off.


Intro

|-------------------------------------------------------------------------|
|-------------------------------------------------------------------------|
|-------------------------------------------------------------------------|
|-------------------------------------------------------------------------|
|---9-x-6-x-7---6---------------------9-x-6-x-7------------9=-------------|
|------------7-----9x-9-7x-5x-2x---------------7--2x-4x-5x-7=-------------|


|-------------------------------------------------------------------------|
|-------------------------------------------------------------------------|
|-------------------------------------------------------------------------|
|-------------------------------------------------------------------------|
|---9-x-6-x-7---6---------------------------------------------------------|
|------------7-----9x-9-7x-5x-2x------5x-5-6x-6-7x-7-8x-8-9x--------------|


|-------------------------------------------------------------------------|
|-------------------------------------------------------------------------|
|-------------------------------------------------------------------------|
|-------------------------------------------------------------------------|
|---9-x-6-x-7---6---------------------9-x-6-x-7------------9=-------------|
|------------7-----9x-9-7x-5x-2x---------------7--2x-4x-5x-7=-------------|


|-------------------------------------------------------------------------|
|-------------------------------------------------------------------------|
|-------------------------------------------------------------------------|
|---------------------------------------------------7-2-------------------|
|---9-x-6-x-7---6---------------------9-x-6-x-7-----7-2-------------------|
|------------7-----9x-9-7x-5x-2x---------------7--x-5-0-------------------|


Verse 1

|-------------------------------------------------------------------------|
|-------------------------------------------------------------------------|
|----------------------------------------------------7--9-----------------|
|--4----4--4--4--4---4--7--2----4----4--4--4--4---4--7--9-----------------|
|--4----4--4--4--4---4--7--2----4----4--4--4--4---4--5--7-----------------|
|--2----2--2--2--2---2--5--0----2----2--2--2--2---2-----------------------|


|-------------------------------------------------------------------------|
|-------------------------------------------------------------------------|
|-------------------------------------------------------------------------|
|---------------------------------------------------7-2-------------------|
|---9-x-6-x-7---6---------------------9-x-6-x-7-----7-2-------------------|
|------------7-----9x-9-7x-5x-2x---------------7--x-5-0-------------------|


|-------------------------------------------------------------------------|
|-------------------------------------------------------------------------|
|----------------------------------------------------7--9-----------------|
|--4----4--4--4--4---4--7--2----4----4--4--4--4---4--7--9--9=--7-6--9=--7=|
|--4----4--4--4--4---4--7--2----4----4--4--4--4---4--5--7--9=--7-6--9=--7=|
|--2----2--2--2--2---2--5--0----2----2--2--2--2---2--------7=--5-4--7=--5=|


|-------------------------------------------------------------------------|
|-------------------------------------------------------------------------|
|----------------------------------------------------------------7--------|
|--4x--4x--4x-7---4x--4x--4x-9---4x--4x--4x-7--------------------7---9----|
|--4x--4x--4x-7---4x--4x--4x-9---4x--4x--4x-7--------------------5---9----|
|--2x--2x--2x-5---2x--2x--2x-7---2x--2x--2x-5---7-7b7br-5h7p5~-------7----|


Chorus

|-------------------------------------------------------------------------|
|---------------------------10-10-9h10------------------------------------|
|---------------------------9--9---h9-------------------------------------|
|--4--2x--4-4---------7-7h9-------------4--2x--4-4---------7--------7--2--|
|--4--2x--4-4---/5-7/9-9----------------4--2x--4-4---/5-7/9-9-7h9---7--2--|
|--2--0x--2-2---------------------------2--0x--2-2------------------5--0--|


|-------------------------------------------------------------------------|
|---------------------------10-10-9h10------------------------------------|
|---------------------------9--9---h9--7-----------9=---------------------|
|--4--2x--4-4---------7-7h9------------7-----7-7h9-9=-7--2--4-------------|
|--4--2x--4-4---/5-7/9-9---------------5--7/9-9----7=-7--2--4/9-x-6-x-7---|
|--2--0x--2-2-----------------------------------------5--0--2----------7--|


|-------------------------------------------------------------------------|
|-------------------------------------------------------------------------|
|-------------------------------------------------------------------------|
|----------------------------------7-2------------------------------------|
|-6--------------------9-x-6-x-7---7-2------------------------------------|
|----9x-9-7x-5x-2x--------------7--5-0------------------------------------|


Verse 2

|-------------------------------------------------------------------------|
|-------------------------------------------------------------------------|
|-------------------------------------------------7--9--7-----------9-----|
|-4---4--4--4--4---4--7--2----4---4--4--4--4---4--7--9--7-----7-7h9-9/14b~|
|-4---4--4--4--4---4--7--2----4---4--4--4--4---4--5--7--5--7/9-9----7-----|
|-2---2--2--2--2---2--5--0----2---2--2--2--2---2--------------------------|


Chorus

|-------------------------------------------------------------------------|
|---------------------------10-10-9h10------------------------------------|
|---------------------------9--9---h9-------------------------------------|
|--4--2x--4-4---------7-7h9-------------4--2x--4-4---------7--------7--2--|
|--4--2x--4-4---/5-7/9-9----------------4--2x--4-4---/5-7/9-9-7h9---7--2--|
|--2--0x--2-2---------------------------2--0x--2-2------------------5--0--|


|-------------------------------------------------------------------------|
|---------------------------10-10-9h10------------------------------------|
|---------------------------9--9---h9--7-----------9=---------------------|
|--4--2x--4-4---------7-7h9------------7-----7-7h9-9=-7--2----------------|
|--4--2x--4-4---/5-7/9-9---------------5--7/9-9----7=-7--2-/7-8-9--\6h7---|
|--2--0x--2-2-----------------------------------------5--0----------------|


|-------------------------------------------------------------------------|
|-------------------------------------------------------------------------|
|-------------------------------------------------------------------------|
|-------------------------------------------/7----------------------------|
|-x-x-7-6---------------------/7-8-9--\6h7-----9p7p6h7h9p7p6--------------|
|---------9p7--5h7-7b7br\2~---------------------------------9~------------|


Solo

|--12--12--12--------------------------------------------12-14b-14b-14mb--|
|--12b-12b-12br-12b12br-10-10--10p9-------------------/12-----------------|
|----------------------------------11p9---11p9-11-11b---------------------|
|-------------------------------------------------------------------------|
|-------------------------------------------------------------------------|
|-------------------------------------------------------------------------|


|-12b14------14-----16-----17-----19-14h16h17/19/21-24b-24b~-21-----------|
|-------12h14--12h14--12h14--12h14-----------------------------24-24b-----|
|-------------------------------------------------------------------------|
|-------------------------------------------------------------------------|
|-------------------------------------------------------------------------|
|-------------------------------------------------------------------------|

You'll have to improvise a bit here (for about 3 seconds), this bit is  
too fast to tab out!

I've picked it up again here at 2:24mins (Firehouse - Firehouse CD)

|----19---19---19---------------------------------------------------------|
|-19b--19b--19b--19b-19b--------------------------------------------------|
|--------------------------------------------------11---------------------|
|-------------------------/14-14-14p13-13-13h14-14--14--14-14-14-14-14-13-|
|-------------------------------------------------------------------------|
|-------------------------------------------------------------------------|


|------------------24p23p21----------------24p23p21-----------------------|
|--------------------------24p22p21----------------24p22p21---------------|
|----------------------------------23p21p20----------------23p21p20-------|
|--13-13h14p13~~----------------------------------------------------------|
|-------------------------------------------------------------------------|
|-------------------------------------------------------------------------|


|-24p23p21----------------24b---------------------------------------------|
|---------24p22p21--------------------------------------------------------|
|-----------------23p21p20------------------------------------------------|
|-------------------------------------------------------------------------|
|-------------------------------------------------------------------------|
|-----------------------------5x-5-6x-6-7x-7-8x-8--5x-5-6x-6-7x-7-8x-8-5\-|


Chorus

|-------------------------------------------------------------------------|
|---------------------------10-10-9h10------------------------------------|
|---------------------------9--9---h9-------------------------------------|
|--4--2x--4-4---------7-7h9-------------4--2x--4-4---------7--------7--2--|
|--4--2x--4-4---/5-7/9-9----------------4--2x--4-4---/5-7/9-9-7h9---7--2--|
|--2--0x--2-2---------------------------2--0x--2-2------------------5--0--|


|-------------------------------------------------------------------------|
|---------------------------10-10-9h10------------------------------------|
|---------------------------9--9---h9-------------------------------------|
|--4--2x--4-4---------7-7h9-------------4--2x--4-4---------7--------7--2--|
|--4--2x--4-4---/5-7/9-9----------------4--2x--4-4---/5-7/9-9-7h9---7--2--|
|--2--0x--2-2---------------------------2--0x--2-2------------------5--0--|


|-------------------------------------------------------------------------|
|-------------------------------------------------------------------------|
|--------------------------------------------------7--9=------------------|
|--------------------------------------------------7--9=------------------|
|---9-x-6-x-7---6---------------------9-x-6-x-7----5--7=------------------|
|------------7-----9x-9-7x-5x-2x---------------7--------------------------|


|-------------------------------------------------------------------------|
|---------------------------10x-10x-10x-----------------------------------|
|---------------------------9x--9x--9x---------------4--------7-----------|
|--4--2x--4-4---------7-7h9-------------4--2x--4-4---4--7--4--7-----------|
|--4--2x--4-4---/5-7/9-9----------------4--2x--4-4---2--7--4--5-----------|
|--2--0x--2-2---------------------------2--0x--2-2------5--2--------------|


|-------------------------------------------------------------------------|
|---------------------------10x-10x-10x-----------------------------------|
|---------------------------9x--9x--9x--7-----------9=--------------------|
|--4--2x--4-4---------7-7h9-------------7-----7-7h9-9=-7--2---------------|
|--4--2x--4-4---/5-7/9-9----------------5--7/9-9----7=-7--2---------------|
|--2--0x--2-2------------------------------------------5--0---------------|


Outro

|-------------------------------------------------------------------------|
|-------------------------------------------------------------------------|
|-------------------------------------------------------------------------|
|-------------------------------------------------------------------------|
|---9-x-6-x-7---6---------------------9-x-6-x-7------------9=-------------|
|------------7-----9x-9-7x-5x-2x---------------7--2x-4x-5x-7=-------------|


|-------------------------------------------------------------------------|
|-------------------------------------------------------------------------|
|-------------------------------------------------------------------------|
|-------------------------------------------------------------------------|
|---9-x-6-x-7---6---------------------9-x-6-x-7---------------------------|
|------------7-----9x-9-7x-5x-2x---------------7\2------------------------|



| /   Slide up
| \   Slide down
| b   Bend
| mb  Mega Bend
| br  Bend Release
| h   Hammer-on
| p   Pull-off
| ~   Vibrato
| +   Harmonic
| x   Mute note
| !   Artificial Harmonic
| =   Let Note Ring Out
===========================================================================





Comments


Popular Firehouse tabs & chords
I Live My Life For You Chords
I Need You Now Chords
Love Of A Lifetime Chords
When I Look Into Your Eyes Chords
When I Look Into Your Eyes 1 Chords
Get Ready Tabs
Love Of A Lifetime 1 Tabs
Love Of A Lifetime 4 Tabs
When I Look Into Your Eyes Tabs
You Are My Religion Ukulele


Song lyrics



↑ Back to top | Tablatures and chords are parodies/interpretations of the original songs. You may use it for private study, scholarship, research or language learning purposes only
© 2014 AZChords.com Contact us | Privacy policy | DMCA | Add/correct tabs | Request tabs | Top 50 tabs