>
 >
Overnight Sensation 2

Overnight Sensation 2 Guitar Tabs

Firehouse - Overnight Sensation 2 chords, tabs, tablatures, lyrics

Guitar lessons | Add/correct | Request | Top 50 tabs Artists:  A B C D E F G H I J K L M N O P Q R S T U V W X Y Z 0-9

Overnight Sensation 2 Guitar Tabs – Firehouse

CD, Sheet music, Poster

Do you like Overnight Sensation 2? Share with your friends now
TabsTabs v2
             Firehouse - Overnight Sensation

Solo


      W
D#||-------------------|
A#||-------------------|
F#||-------------------|
C#||-------------------|
G#||-------------------|
D#||-------------------|

  W                    W                     E    E   Q      E    E    E   E
-------------------|--24~----------------|--22b---L--19~----22b--19~--22b--L--|
-------------------|---------------------|------------------------------------|
-------------------|---------------------|------------------------------------|
-------------------|---------------------|------------------------------------|
-------------------|---------------------|------------------------------------|
-------------------|---------------------|------------------------------------|


   Q     S  T   T   T  T T.  Q      E   E  X
--22b----L-19h-22p-19------------------------|
----------------------22-L--22b----22~--L--L-|
---------------------------------------------|
---------------------------------------------|
---------------------------------------------|
---------------------------------------------|


   T  T  T  T  T  T  T  T  T  T  T  T  T  T  T  T  T  T  T  T  T  T  T  T  T  T
--19-20-22-20-19-17-20-19-17-15-19-17-15-14-17-15-14-12-15-14-12----------------|
-----------------------------------------------------------------15-13-12-------|
--------------------------------------------------------------------------14-12-|
--------------------------------------------------------------------------------|
--------------------------------------------------------------------------------|
--------------------------------------------------------------------------------|


   T  T  T  T   T   T  T  T  Q      T T  T  T   T   T  T T  S  S    E
-----------12h-15p-12----------------------10h-12p-10------------------|
--------12------------12----------------10------------10---------------|
-----12------------------12-----------9------------------9----12-<>11--|
--14------------------------14~----12----------------------12----------|
-----------------------------------------------------------------------|
-----------------------------------------------------------------------|


   T     T     T     T     T     T     T     T     T     T     T     T
   T  T  T  T  T  T  T  T  T  T  T  T  T  T  T  T  T  T  T  T  T  T  T  T  Q
--14-12-14-12-14-12-15-14-15-14-15-14-17-15-17-15-19-17-20-19-22-20-22-20-24~---|
--------------------------------------------------------------------------------|
--------------------------------------------------------------------------------|
--------------------------------------------------------------------------------|
--------------------------------------------------------------------------------|
--------------------------------------------------------------------------------|


   E   S  S  S  S  S  S  S  S  S  S  S  E.
---------------------------------------------|
--17--15-15----------------------------------|
------------16-16-14-14----------------------|
------------------------17-17-16-16-14-14~---|
---------------------------------------------|
---------------------------------------------|


    E   S   E   S   E   S   Q     S S S    T  T T  T T  T T  T Q     H
----------------------------------------|-------5h-8-5h-8----------------------|
----------------------------------------|--5h-8-----------8p-5-----------------|
--------4-------4-------4---------4---4-|----------------------7~--------------|
--<>7b----<>7b----<>7b----<>7b------7---|----------------------------7~--------|
----------------------------------------|----------------------------5~--------|
----------------------------------------|--------------------------------------|


  Q.      S T  T Q     S S S S    E  S S E  S S E  S S E  S S
------------5h-7-5~----L-----5-|--7--5---5--------------------|
--5~------5--------------7-8---|-------8----8-7-8--7-5-7--5---|
-------------------------------|----------------------------7-|
-------------------------------|------------------------------|
-------------------------------|------------------------------|
-------------------------------|------------------------------|


  Q.      S  T   T  Q     S  S  S  S     E   S  S  E   S  S  E   S S  E  S S
-------------------------------------|--10-----------------------------------|
------------10h-12-10~----L-10-12-13-|------13-12-13--12-10-12--10-8-10--8-7-|
--9~------9--------------------------|---------------------------------------|
-------------------------------------|---------------------------------------|
-------------------------------------|---------------------------------------|
-------------------------------------|---------------------------------------|


  Q.      S T   T Q.       E       W                   W
------------8h-10-8~------------|-------------------|-------------------|
--8~------8---------------15b~--|--L----------------|-------------------|
--------------------------------|-------------------|-------------------|
--------------------------------|-------------------|-------------------|
--------------------------------|-------------------|-------------------|
--------------------------------|-------------------|-------------------|


  W                   W                    H           E    S  S  E     S  S
-------------------|-------------------|-------------------14-15-15br--14-12-|
-------------------|-------------------|--15b~--------15b--------------------|
-------------------|-------------------|-------------------------------------|
-------------------|-------------------|-------------------------------------|
-------------------|-------------------|-------------------------------------|
-------------------|-------------------|-------------------------------------|


   H          E   S  S  E     S  S
-------------12--14-15-15br--14-17-|
--12~------------------------------|
-----------------------------------|
-----------------------------------|
-----------------------------------|
-----------------------------------|


   Q.      S  S  S  T   T   S  S  S  T   T   S  S
--19~------L-15-14-15p-14p-12-15-14-15p-14p-12-15-|
--------------------------------------------------|
--------------------------------------------------|
--------------------------------------------------|
--------------------------------------------------|
--------------------------------------------------|


   S  T  T  Q.       E   S  S  E   S  S     H           Q      E   S  S
--14-15-14-12~------12--14-15-17--15-17-|--17b~--------17b----17--15-14-|
----------------------------------------|-------------------------------|
----------------------------------------|-------------------------------|
----------------------------------------|-------------------------------|
----------------------------------------|-------------------------------|
----------------------------------------|-------------------------------|


   H          E   S  S  E   S  S
-----------------14-15-17--15-17-|
--17~--------17------------------|
---------------------------------|
---------------------------------|
---------------------------------|
---------------------------------|


   H           S   S   S   S   S   S   S   S
--22b~--------22b-22b-22b-22b-22b-22b-22b-22b-|
----------------------------------------------|
----------------------------------------------|
----------------------------------------------|
----------------------------------------------|
----------------------------------------------|


   H           S   S   S   S   S   S   S   S
--24b~--------24b-24b-24b-24b-24b-24b-24b-24b-|
----------------------------------------------|
----------------------------------------------|
----------------------------------------------|
----------------------------------------------|
----------------------------------------------|


   E    E   Q      E    E    E   E      Q      E.     S  E   S  S  E   S  S
--22b---L--19~----22b--19~--22b--L--|--22b----22br---17-19--17-15-17--15-14-|
------------------------------------|---------------------------------------|
------------------------------------|---------------------------------------|
------------------------------------|---------------------------------------|
------------------------------------|---------------------------------------|
------------------------------------|---------------------------------------|


   E   S  S  E   S  S  H            H        Q    E.     W
--15--14-12-14--12-10-12~--------|--------------------|-------------------||
---------------------------------|--------------------|-------------------||
---------------------------------|--------------------|-------------------||
---------------------------------|--------------------|-------------------||
---------------------------------|--------------------|-------------------||
---------------------------------|--------------------|-------------------||


Duration Legend
---------------
W - whole
H - half
Q - quarter
E - 8th
S - 16th
T - 32nd
X - 64th
. - note dotted
|-n-|  - n-tuplets


Tablature Legend
----------------
L - tied note
x - dead note
g - grace note
(n) - ghost note
> - accentuded note
NH - natural harmonic
AH - artificial harmonic
TH - tapped harmonic
SH - semi harmonic
PH - pitch harmonic
h - hammer on
p - pull off
b - bend
br - bendRelease
pb - preBend
pbr - preBendRelease
brb - bendReleaseBend
\n/ - tremolo bar dip
\n - tremolo bar dive
-/n - tremolo bar Release up
/n\ - tremolo bar inverted dip
/n - tremolo bar return
-\n - tremolo bar Release down
S - shift slide
s - legato slide
/ -  slide into from below or out of upwards
\ -  slide into from above or out of downwards
~ - vibrato
W - wide vibrato
tr - trill
TP - tremolo picking
T - tapping
S - slap
P - pop
< - fade in
^ - brush up
v - brush down





Comments


Popular Firehouse tabs & chords
All She Wrote Bass Tabs
Love Of A Lifetime 1 Chords
More Than Words Can Say Chords
Hanging By A Moment Tabs
Love Of A Lifetime 1st Tabs
Reach For The Sky Tabs
Reaching For The Sky (Intro) Tabs
When I Look Into Your Eyes 3 Tabs
Loving You Is Paradise Ukulele
When I Look Into Your Eyes Ukulele


Song lyrics



↑ Back to top | Tablatures and chords are parodies/interpretations of the original songs. You may use it for private study, scholarship, research or language learning purposes only
© 2014 AZChords.com Contact us | Privacy policy | DMCA | Add/correct tabs | Request tabs | Top 50 tabs