>
 >
Overnight Sensation

Overnight Sensation Guitar Tabs

Firehouse - Overnight Sensation chords, tabs, tablatures, lyrics

Guitar lessons | Add/correct | Request | Top 50 tabs Artists:  A B C D E F G H I J K L M N O P Q R S T U V W X Y Z 0-9

Overnight Sensation Guitar Tabs – Firehouse

CD, Sheet music, Poster

Do you like Overnight Sensation? Share with your friends now
TabsTabs v2
-------------------------------------------------------------------------------
                      Overnight Sensation- Firehouse
-------------------------------------------------------------------------------

* Means to Palm-Mute.

.5  means to used natural harmonics.

7\w 
5\b This means to use the whammy bar and slide at the same time.

Tuning: Half-Step Down


eb|-----------------------------------------------------------------------------|
Bb|-----------------------------------------------------------------------------|
Gb|-----------------------------------------------------------------------------|
Db|9-9-7-9-x-5--5-5-7--7-7--9-9-7-9-x-12--12-12-7--7-7--9-9-7-9-x-5--5-5-7--7-7-|
Ab|7-7-5-7-x-3--3-3-5--5-5--7-7-5-7-x-10--10-10-5--5-5--7-7-5-7-x-3--3-3-5--5-5-|
Eb|-----------------------------------------------------------------------------|
 
            ooooooooohhhhhhhhh yyyyyyyyyyyyyyyyyyyeeeeeeeeeeeeeeeeeeeeeeee
eb|--------------------------------------------------------------------------|
Bb|--------------------------------------------------------------------------|
Gb|--------------------------------------------------------------------------|
Db|9-9-7-9-x-12--12-12-7--7-7--9-9-7-9-x-5--5-5-7--7-7--9-9-7-9-x-12--12-12--|
Ab|7-7-5-7-x-10--10-10-5--5-5--7-7-5-7-x-3--3-3-5--5-5--7-7-5-7-x-10--10-10--|
Eb|--------------------------------------------------------------------------|

  aaaaaaaaaaaaaaaaaaaaaaaaaaahhhhhhhhhhhhhhhhhh
eb|---------------------------------------------------------------------------|
Bb|---------------------------------------------------------------------------|
Gb|---------------------------------------------------------------------------|
Db|7--7-7--9-9-7-9-x-5--5-5-7--7-7--9-9-7-9-x-12--12-12-7\w-------------------|
Ab|5--5-5--7-7-5-7-x-3--3-3-5--5-5--7-7-5-7-x-10--10-10-5\b-------------------|
Eb|---------------------------------------------------------------------------|


VERSE:

    You're headed for the spotlight, I know you can go far
eb|---------------------------------------------------------------------------|
Bb|---------------------------------------------------------------------------|
Gb|---------------------------------------------------------------------------|
Db|9---------------9----------------5-----------7-----------------------------|
Ab|7-7-7-7-7-7-7-7-7-7-7-7-7-7-7-7--3-----------5-------5-5-2-----------------|
Eb|--0-0-0-0-0-0-0---0-0-0-0-0-0-0----------------------3-2-0-----------------|
     * * * * * * *   * * * * * * *

     You can do anything,   just follow your heart
eb|---------------------------------------------------------------------------|
Bb|---------------------------------------------------------------------------|
Gb|---------------------------------------------------------------------------|
Db|9--------------9----------------12----------7------------------------------|
Ab|7-7-7-7-7-7-7--7-7-7-7-7-7-7----10----------5---5-5-2----------------------|
Eb|--0-0-0-0-0-0----0-0-0-0-0-0--------------------3-2-0----------------------|
     * * * * * *    * * * * * *
    Just set the wheels in motion, hold tight and stake your claim
eb|---------------------------------------------------------------------------|
Bb|---------------------------------------------------------------------------|
Gb|---------------------------------------------------------------------------|
Db|9---------------9---------------5----------------7-------------------------|
Ab|7-7-7-7-7-7-7-7-7-7-7-7-7-7-7---3----------------5---------5-5-2-----------|
Eb|--0-0-0-0-0-0-0---0-0-0-0-0-0------------------------------3-2-0-----------|
     * * * * * * *   * * * * * *
   Make sure that they will all remember your name
eb|--------------------------------------------------------------------------|
Bb|--------------------------------------------------------------------------|
Gb|--------------------------------------------------------------------------|
Db|9---------------9----------------12---------7-----------------------------|
Ab|7-7-7-7-7-7-7-7-7-7-7-7-7-7-7-7--10---------5----5-5-2--------------------|
Eb|--0-0-0-0-0-0-0---0-0-0-0-0-0-0------------------3-2-0--------------------|
     * * * * * * *   * * * * * * *
   Can't yooouuuu feeeeellll it     comin' on Just  let   go
eb|--------------------------------------------------------------------------|
Bb|---------5--------------7-------------------------------------------------|
Gb|-----5-----5-------7------7-----------------------------4-----------------|
Db|-5-5---5-----5-7-7---7------7---------5-----5-----5-4-4-------------------|
Ab|-3-------------5------------------5-5---5-5---2-5---2---------------------|
Eb|----------------------------------3-----2-----0---------------------------|

    Can't youu ssseeeeee that     You're about to steal the ssssshhhhoooooowwwwwwww

eb|--------------------------------------------------------------------------------|
Bb|---------5------------7-----------------------------------------5---------------|
Gb|-----5-----5-------7----7-----------------------------4------5---5---------.5-.4|
Db|-5-5---5-----5-7-7---7----7---------5-----5-----5-4-4----5-5---5--5-7-.7-.5-----|
Ab|-3-------------5----------------5-5---5-5---2-5---2------3----------5-----------|
Eb|--------------------------------3-----2-----0-----------------------------------|

CHORUS:

Oh,  you're the overnight sensation   You can be a star    Overnight sensation 
eb|-----------------------------------------------------------------------------|
Bb|-----------------------------------------------------------------------------|
Gb|-----------------------------------------------------------------------------|
Db|9-9-7-9-x-5--5-5-7--7-7--9-9-7-9-x-12--12-12-7--7-7--9-9-7-9-x-5--5-5-7--7-7-|
Ab|7-7-5-7-x-3--3-3-5--5-5--7-7-5-7-x-10--10-10-5--5-5--7-7-5-7-x-3--3-3-5--5-5-|
Eb|-----------------------------------------------------------------------------|
 
  No matter who you arrrrrreeeeee
eb|--------------------------------------------------------------------------|
Bb|--------------------------------------------------------------------------|
Gb|--------------------------------------------------------------------------|
Db|9-9-7-9-x-12--12-12-7--9-------------9-------------5-5---------7\---------|
Ab|7-7-5-7-x-10--10-10-5--7-7-7-7-7-7-7-7-7-7-7-7-7-7-3-3-7-7-7-7-5\--5-5-2--|
Eb|-------------------------0-0-0-0-0-0---0-0-0-0-0-0-----0-0-0-0-----3-2-0--|

VERSE 2:

    The stage is ready for you, can't wait another day
eb|---------------------------------------------------------------------------|
Bb|---------------------------------------------------------------------------|
Gb|---------------------------------------------------------------------------|
Db|9---------------9----------------5-----------7-----------------------------|
Ab|7-7-7-7-7-7-7-7-7-7-7-7-7-7-7-7--3-----------5-------5-5-2-----------------|
Eb|--0-0-0-0-0-0-0---0-0-0-0-0-0-0----------------------3-2-0-----------------|
     * * * * * * *   * * * * * * *

     There is no limit,  you can take it all the way
eb|---------------------------------------------------------------------------|
Bb|---------------------------------------------------------------------------|
Gb|---------------------------------------------------------------------------|
Db|9--------------9----------------12----------7------------------------------|
Ab|7-7-7-7-7-7-7--7-7-7-7-7-7-7----10----------5---5-5-2----------------------|
Eb|--0-0-0-0-0-0----0-0-0-0-0-0--------------------3-2-0----------------------|
     * * * * * *    * * * * * *
    Just take your chance forever and make your dreams come true
eb|---------------------------------------------------------------------------|
Bb|---------------------------------------------------------------------------|
Gb|---------------------------------------------------------------------------|
Db|9---------------9---------------5----------------7-------------------------|
Ab|7-7-7-7-7-7-7-7-7-7-7-7-7-7-7---3----------------5---------5-5-2-----------|
Eb|--0-0-0-0-0-0-0---0-0-0-0-0-0------------------------------3-2-0-----------|
     * * * * * * *   * * * * * *
   
     You know it's now or never, it's up to you
eb|--------------------------------------------------------------------------|
Bb|--------------------------------------------------------------------------|
Gb|--------------------------------------------------------------------------|
Db|9---------------9----------------12---------7-----------------------------|
Ab|7-7-7-7-7-7-7-7-7-7-7-7-7-7-7-7--10---------5----5-5-2--------------------|
Eb|--0-0-0-0-0-0-0---0-0-0-0-0-0-0------------------3-2-0--------------------|
     * * * * * * *   * * * * * * *

   Can't yooouuuu feeeeellll it     comin' on Just  let   go
eb|--------------------------------------------------------------------------|
Bb|---------5--------------7-------------------------------------------------|
Gb|-----5-----5-------7------7-----------------------------4-----------------|
Db|-5-5---5-----5-7-7---7------7---------5-----5-----5-4-4-------------------|
Ab|-3-------------5------------------5-5---5-5---2-5---2---------------------|
Eb|----------------------------------3-----2-----0---------------------------|

    Can't youu ssseeeeee that     You're about to steal the ssssshhhhoooooowwwwwwww

eb|--------------------------------------------------------------------------------|
Bb|---------5------------7-----------------------------------------5---------------|
Gb|-----5-----5-------7----7-----------------------------4------5---5--------------|
Db|-5-5---5-----5-7-7---7----7---------5-----5-----5-4-4----5-5---5--5-7--7-7------|
Ab|-3-------------5----------------5-5---5-5---2-5---2------3----------5--5-5------|
Eb|--------------------------------3-----2-----0-----------------------------------|

CHORUS:

Oh,  you're the overnight sensation   You can be a star    Overnight sensation 
eb|-----------------------------------------------------------------------------|
Bb|-----------------------------------------------------------------------------|
Gb|-----------------------------------------------------------------------------|
Db|9-9-7-9-x-5--5-5-7--7-7--9-9-7-9-x-12--12-12-7--7-7--9-9-7-9-x-5--5-5-7--7-7-|
Ab|7-7-5-7-x-3--3-3-5--5-5--7-7-5-7-x-10--10-10-5--5-5--7-7-5-7-x-3--3-3-5--5-5-|
Eb|-----------------------------------------------------------------------------|
 
  No matter who you arrrrrreeeeee
eb|---------------------------|
Bb|---------------------------|
Gb|---------------------------|
Db|9-9-7-9-x-12--12-12-7--9w--|
Ab|7-7-5-7-x-10--10-10-5--7b--|
Eb|---------------------------|

SOLO:


CHORUS:

Oh,  you're the overnight sensation   You can be a star    Overnight sensation 
eb|-----------------------------------------------------------------------------|
Bb|-----------------------------------------------------------------------------|
Gb|-----------------------------------------------------------------------------|
Db|9-9-7-9-x-5--5-5-7--7-7--9-9-7-9-x-12--12-12-7--7-7--9-9-7-9-x-5--5-5-7--7-7-|
Ab|7-7-5-7-x-3--3-3-5--5-5--7-7-5-7-x-10--10-10-5--5-5--7-7-5-7-x-3--3-3-5--5-5-|
Eb|-----------------------------------------------------------------------------|
 
  No matter who you arrrrrreeeeee
eb|---------------------------|
Bb|---------------------------|
Gb|---------------------------|
Db|9-9-7-9-x-12--12-12-7--9---| Repeat.
Ab|7-7-5-7-x-10--10-10-5--7---|
Eb|---------------------------|


Play this the very last time

eb|--------------------------------------------------------------------------|
Bb|--------------------------------------------------------------------------|
Gb|--------------------------------------------------------------------------|
Db|9-9-7-9-----------5----7------2-----2----5-4-2------------2-2--2---2------|
Ab|7-7-5-7--7----9---3----5----2-----2------------5-3-2------2-2--2---2------|
Eb|---------5----7-----------3-----3-----3-2------------5-3--0-0--0---0------|


************************************

| /   slide up
| \   slide down
| h   hammer-on
| p   pull-off
| ~   vibrato
| +   harmonic
| x   Mute note
| b   Bend
| pb  Pre-bend
| br  Bend release
| pbr Pre-bend release
| brb Bend release bend

************************************





Comments


Popular Firehouse tabs & chords
Don't Treat Me Bad Chords
Dream Chords
I Live My Life For You Chords
Love Of A Lifetime 3 Chords
I Live My Life For You 4 Tabs
Love Of A Lifetime 1st Tabs
Love Of A Lifetime 4 Tabs
Mama Didnt Raise No Fools Intro Tabs
Dont Treat Me Bad Ukulele
You Are My Religion Ukulele


Song lyrics



↑ Back to top | Tablatures and chords are parodies/interpretations of the original songs. You may use it for private study, scholarship, research or language learning purposes only
© 2014 AZChords.com Contact us | Privacy policy | DMCA | Add/correct tabs | Request tabs | Top 50 tabs