» » »

No One At All Chords (ver.1)

Artists:  A B C D E F G H I J K L M N O P Q R S T U V W X Y Z # 

No One At All Chords (ver.1)

Firehouse
Rating:
5/5 (1 vote)

Hard to play? Try these video lessons and learn fast.
                Firehouse - No one at all

Chords legend :

            EADGBe
            |||||| 
C         - x32010
D         - x00232
Dsus2     - x00230
Dsus4      - x00233
Em        - 022000
G         - xx0433
Gsus4      - xx0435
A         - x02220
Bm        - x24432

Intro : 
    D  Dsus2  D  Dsus4   D  Dsus2  D     G   Gsus4  G   
e|--2----0----2----3----2----0----2--|--x----x----x-------------------|
B|--3----3----3----3----3----3----3--|--x----x----x-------------------|
G|--2----2----2----2----2----2----2--|--0----0----0-------------------| x2
D|--0----0----0----0----0----0----0--|--4----4----4-------------------|
A|-----------------------------------|--3----3----3-------------------|
E|-----------------------------------|--3----5----3-------------------|

    C
e|--0---------------------------------|
B|--1---------------------------------|
G|--0---------------------------------|
D|--2---------------------------------|
A|--3---------------------------------|
E|------------------------------------|


Verse 1:
         D   Dsus2  D
Tell me why,
Dsus4   D    Dsus2 D    G       Gsus4 G
Things ain't like they used to be before
             D  Dsus2  D
I don't know why,
    Dsus4 D Dsus2 D G                     C
You hurt me but I still come back for more

     D
Baby I,
  Dsus4  D   Dsus2 D   G
I don't know how much more my heart can take
       Em                    A           D
And I don't know how much longer I can stay


Pre-chorus I:
              Em                        
They say you don't know what you've got
    Bm
sometimes until it's gone
G                     D
Baby don't wait that long

Pre-chorus II:
         Em          
So don't take our love for granted
    G
Coz you might wind up with..


Chorus:
A         D    G  A
No one at all,

No one at all
     Bm
Baby you know how romance is
          G
You don't get no second chances
              Em           A         D
And you might wind up with no one at all


Verse 2:
       D
Baby you,
Dsus2 D Dsus4 D Dsus2 D  G                   Gsus4 G
Better look both ways before you cross my heart
            D
I'm telling you,
Dsus2 D   Dsus4 D Dsus4  D        G             C 
It's your little games that are tearin' us apart

       D
Baby you,
Dsus4  D     Dsus2       G              Gsus4 G
Never found the words I need to hear you say
       Em                 A              D     
And I don't know how much longer I can stay



Back to Pre-chorus II

Chorus

Interlude 
(I will update this part soon)

Pre-chorus I

Chorus 
(change key up to one tone D->E)


special for : yoeri, natalie, max, bebe
            
Hard to play? Try these video lessons and learn fast. | Correct




comments powered by Disqus
↑ Back to top | Tablatures and chords are parodies/interpretations of the original songs. You may use it for private study, scholarship, research or language learning purposes only