» » »

If It Changes Tabs (ver.1)

Artists:  A B C D E F G H I J K L M N O P Q R S T U V W X Y Z # 

If It Changes Tabs (ver.1)

Firehouse
Rating:
0/5 (0 votes)

Hard to play? Try these video lessons and learn fast.
                                      Firehouse – If it changes solo
                       From the album “Category 5”

By Sanjeev George and Thomas George 


| b  bend
| r  release bend
| /  slide up 
| \  slide down
| h  hammer-on
| p  pull-off
| ~  hold note ands let ring
| v  vibrato

e|---13b15r13--------------------------------------------|
B|--------------13b15r13---12b13r12----------------------|
G|------------------------------------10b12r10-----------|
D|-------------------------------------------------------|
A|-------------------------------------------------------|
E|-------------------------------------------------------|

e|----------7h8p7h8p7h8p7h8-8/10v---7h8p7-----6--------------|
B|------6-8-------------------------------6v----7b8r7b8~-----|
G|---/7------------------------------------------------------|
D|-----------------------------------------------------------|
A|-----------------------------------------------------------|
E|-----------------------------------------------------------|

e|---17----15--------15-20b22r20p18--20---18b20-18v-------------------|
B|-------------15-18-----------------------------------20p18-20v------|
G|--------------------------------------------------------------------|
D|--------------------------------------------------------------------|
A|--------------------------------------------------------------------|
E|--------------------------------------------------------------------|

e|--18-20—20b22r20p18--20-18—18/20-20-20-20—20/22--20--19---------------|
B|---------------------------------------------------------20v----------|
G|----------------------------------------------------------------------|
D|----------------------------------------------------------------------|
A|----------------------------------------------------------------------|
E|----------------------------------------------------------------------|

please rate.thank you
            
Hard to play? Try these video lessons and learn fast. | Correct




comments powered by Disqus
↑ Back to top | Tablatures and chords are parodies/interpretations of the original songs. You may use it for private study, scholarship, research or language learning purposes only