>
 >
Hanging By A Moment

Hanging By A Moment Guitar Tabs

Firehouse - Hanging By A Moment chords, tabs, tablatures, lyrics

Guitar lessons | Add/correct | Request | Top 50 tabs Artists:  A B C D E F G H I J K L M N O P Q R S T U V W X Y Z 0-9

Hanging By A Moment Guitar Tabs – Firehouse

CD, Sheet music, Poster

Do you like Hanging By A Moment? Share with your friends now
Tabs

Eb------------------------------------|
Bb------------------------------------|
Gb-----------------------0------------|
Db------0--2-0---------0---4-2-0------|
Ab----0--------0-0*-0*----------------|
Db-7\0--------------------------------|
   Desperate for changing

Eb---------------------------------|
Bb---------------------------------|
Gb-----------------------0---------|
Db-----0--2-0---------0---4-2-0----|
Ab---0--------0-0*-0*--------------|
Db-0-------------------------------|
   starving  for  truth

Eb-----------------------------------------|
Bb-----------------------------------------|
Gb----------------------------0------------|
Db--------0---2--0---------0----4-2-0------|
Ab----0------------0-0*-0*-----------------|
Db-0---------------------------------------|
 I'm closer to where i started

Eb------------------|
Bb------------------|
Gb------------------|
Db------0--2-0------|
Ab----0--------0----|
Db-0----------------|
  chasing after you

Eb--------------------------0----2---------0----------|
Bb-------------------3----------------3----------3----|
Gb----------------------------------------------------|
Db----------------------------------------------------|
Ab----------------------------------------------------|
Db----------------------------------------------------|
 I'm falling even more in love with you, letting go of

Eb-3--------0----2------0----3--2----0-----|
Bb------------------3--------------------3-|
Gb-----------------------------------------|
Db-----------------------------------------|
Ab-----------------------------------------|
Db-----------------------------------------|
  All I've held on to, I'm standing here un-

Eb-3-------0---2-------------0-----------------------|
Bb-----------------3-----------------3---------------|
Gb---------------------------------------------------|
Db---------------------------------------------------|
Ab---------------------------------------------------|
Db---------------------------------------------------|
  til you make me move, i'm hangin' by a

Eb-3------0----2------|
Bb------------------3-|
Gb--------------------|
Db--------------------|
Ab--------------------|
Db--------------------|
  moment here with you

Eb-3--------0----2------0----3--2----0-----|
Bb------------------3--------------------3-|
Gb-----------------------------------------|
Db-----------------------------------------|
Ab-----------------------------------------|
Db-----------------------------------------|

Eb-3--------0----2------0----3--2----0-----|
Bb------------------3--------------------3-|
Gb-----------------------------------------|
Db-----------------------------------------|
Ab-----------------------------------------|
Db-----------------------------------------|

Eb---3-------0---2---------0----3--2----0------|
Bb--------------------3--------------------3---|
Gb---------------------------------------------|
Db---------------------------------------------|
Ab---------------------------------------------|
Db---------------------------------------------|
 Forgetting all I'm lacking

Eb-----3------0---2---------0----3--2----0------|
Bb--------------------3--------------------3----|
Gb----------------------------------------------|
Db----------------------------------------------|
Ab----------------------------------------------|
Db----------------------------------------------|
   completely incomplete

Eb-----3---------0-2------0----3--2----0------|
Bb-------------------3--------------------3---|
Gb--------------------------------------------|
Db--------------------------------------------|
Ab--------------------------------------------|
Db--------------------------------------------|
 I'll take your invitation

Eb-3--------0--2---------|
Bb----------------3------|
Gb-----------------------|
Db-----------------------|
Ab-----------------------|
Db-----------------------|
  You take all of me,    And I'm falling even

  Bm   Bm Bm   A    D     D   D   D  D
  more in love with you!  Letting go of

  Bm  Bm   Bm   A  D       D   D    D    D
  all I've held on to! I'm standing here un-

  Bm  Bm  Bm   A  D
  til you make me move!

      D   D   D  D Bm Bm  Bm   A    D
  I'm hangin' by a moment here with you!

     D  D   D   D   Bm Bm Bm    A D
 I'm livin' for the on-ly thing I know!

     D   D   D   D   Bm    Bm   Bm    A  D
 I'm running and not quite sure where to go!

     D D     D    D    Bm  Bm Bm  A D
 And I don't know what I'm diving into!

      D   D   D  D Bm Bm  Bm   A    D
 Just hangin' by a moment here with you!

Eb-------------------------------------------|
Bb-------------------------------------------|
Gb-------------------------------------------|
Db-------------------------------------------|
Ab-------------------------------------------|
Db------------------------3- G -2-3- G -3----| G
There's nothing left to lose!

Eb-------------------------------------------------|
Bb-------------------------------------------------|
Gb-------------------------------------------------|
Db-------------------------------------------------|
Ab-------------------------------------------------|
Db-2--3-- G --3-- G --2--3---&---------------------|
There's nothing left to find!

Eb------------------------------------------|
Bb------------------------------------------|
Gb------------------------------------------|
Db------------------------------------------|
Ab------------------------------------------|
Db------------------------3- G -2-3- G -3---| G
 There's nothing in the world!

Eb-----------------------------------------|
Bb-----------------------------------------|
Gb-----------------------------------------|
Db-----------------------------------------|
Ab-----------------------------------------|
Db-2--3- G --3-- G -2--3- G ---------------|
  That could change my mind!

HERE THE FIRST GUITAR STARTS PLAYING AGAIN BUT THE CHORDS ARE DONE BY THE SECOND GUITAR!!!

                    G     A         Em  G   A
Eb------------------------7-5-------------------|
Bb------------------7-5-7-----7-5-3-----7-5-----|
Gb----------------------------------4-2-----4-2-|
Db----------------------------------------------|
Ab----------------------------------------------|
Db----------------------------------------------|
  There is nothing  e   -    l    -   s   -   e

                   G    A         Em
Eb------------------------------------------|
Bb-----------------9--7--------4--9--7------|
Gb----------------------6-4-4----------6--4-|
Db------------------------------------------|
Ab------------------------------------------|
Db------------------------------------------|
 There is nothing e   -   l   -   s   -   e

                     G   A        Em
Eb-----------------------------------------|
Bb-------------------9-7-10-9-7-9\2--------|
Gb-----------------------------------------|
Db-----------------------------------------|
Ab-----------------------------------------|
Db-----------------------------------------|
  There is nothing else!

Eb------------------------------------|
Bb------------------------------------|
Gb-----------------------0------------|
Db------0--2-0---------0---4-2-0------|
Ab----0--------0-0*-0*----------------|
Db-7\0--------------------------------|
   Desperate for changing

Eb-----------------------------------|
Bb-----------------------------------|
Gb-----------------------0-----------|
Db-----0--2-0---------0----4-2-0-----|
Ab---0--------0-0*-0*----------------|
Db-0---------------------------------|
   starving  for  truth

Eb--------------------------------------|
Bb--------------------------------------|
Gb----------------------------0---------|
Db--------0---2--0---------0----4-2-0---|
Ab----0------------0-0*-0*--------------|
Db-0------------------------------------|
 I'm closer to where i started

Eb---------------------------------|
Bb---------------------------------|
Gb-----------------------0---------|
Db------0--2-0---------0---4-2-0-0-|
Ab----0--------0-0*-0*-------------|
Db-0-------------------------------|
   chasing  after  you

                 Bm   Bm Bm   A    D    D   D   D  D
I'm falling even more in love with you! Letting go of

 Bm  Bm   Bm   A  D       D    D   D    D
 all I've held on to, I'm standing here un-

 Bm  Bm  Bm   A  D          D   D   D  D
 til you make me move, just hangin' by a

 Bm Bm  Bm   A    D         D  D   D   D
 moment here with you!  I'm livin' for the

 Bm Bm Bm    A D          D    D   D   D
 on-ly thing I know!  I'm runnning and not

 Bm    Bm   Bm    A  D        D D     D    D
 quite sure where to go!  And I don't know what

Bm  Bm Bm  A D      D   D   D  D Bm Bm  Bm   A    D
I'm diving into I'm hangin' by a moment here with you!





Comments


Popular Firehouse tabs & chords
All She Wrote Bass Tabs
I Live My Life For You 1 Chords
Let Go Chords
No One At All Chords
When I Look Into Your Eyes 1 Chords
You Are My Religion Chords
Get Ready 2 Tabs
Love Of A Lifetime 3 Tabs
Lover's Lane Tabs
I Need You Now Ukulele


Song lyrics



↑ Back to top | Tablatures and chords are parodies/interpretations of the original songs. You may use it for private study, scholarship, research or language learning purposes only
© 2014 AZChords.com Contact us | Privacy policy | DMCA | Add/correct tabs | Request tabs | Top 50 tabs