>
 >
Get Ready

Get Ready Guitar Tabs

Firehouse - Get Ready chords, tabs, tablatures, lyrics

Guitar lessons | Add/correct | Request | Top 50 tabs Artists:  A B C D E F G H I J K L M N O P Q R S T U V W X Y Z 0-9

Get Ready Guitar Tabs – Firehouse

CD, Sheet music, Poster

Do you like Get Ready? Share with your friends now
TabsTabs v2
                                                Firehouse – Get ready
                                              From the album “Category 5”

By Sanjeev George and Thomas George

Notations used

| /  slide up
| \  slide down
| h  hammer-on
| p  pull-off
| ~  let ring
| +  pinch harmonic
| x  Mute note


chords used
e|--------------------------------------------------------------|
B|--------------------------------------------------------------|
G|-----------------2----4----6-----7----9-----------------------|
D|--4----2----3----2----4----6-----7----9----6----7----9--------|
A|--4----2----3----0----2----4-----5----7----6----7----9--------|
E|--2----0----1------------------------------4----5----7--------|
   F#5   E5   F5   A5   B5   C#5   D5   E5  G#5   A5   B5


Intro

e|---------------------------------------------------------------|
B|---------------------------------------------------------------|
G|---------------------------------------------------------------|
D|---------4-x-x-4+----2-3-4+----4-4-4-4---2-2-2-2---------------|
A|---16\---4-x-x-----4-----------4-4-4-4---2-2-2-2--4-2----------|
E|---14\---2-x-x--------------2--2-2-2-2----------------5-2------|

e|---------------------------------------------------|
B|---------------------------------------------------|
G|---------------------------------------------------|
D|-----4-x-x-4+----2-3-4+----4-4-4-4---2-2-2-2-------|
A|-----4-x-x-----4-----------4-4-4-4---2-2-2-2-------|
E|-----2-x-x--------------2--2-2-2-2-----------------|

e|---------------------------------------------------|
B|---------------------------------------------------|
G|---------------------------------------------------|
D|-----4-x-x-4+----2-3-4+----4-4-4-4---2-2-2-2-------|
A|-----4-x-x-----4-----------4-4-4-4---2-2-2-2-------|
E|-----2-x-x--------------2--2-2-2-2-----------------|



Verse

e|----------------------------------------------------|
B|----------------------------------------------------|
G|----------------------------------------------------|   Play twice   
D|----4-x-x-4-x-x-2-3-4--x-4-----4-4-4-4---2-2-2-2----|
A|----4-x-x-4-x-x-2-3-4--x-4-----4-4-4-4---2-2-2-2----|
E|--2-2-x-x-2-x-x---1-2--x-2---2-2-2-2-2--------------|


e|------------------------------------|
B|------------------------------------|
G|------4---2-----4---2---9-----------|
D|--2h4-4---2-----4---2---9-----------|
A|------2---0-----2---0---7-----------|
E|------------------------------------|

e|----------------------------------------------------|
B|----------------------------------------------------|
G|----------------------------------------------------|   
D|----4-x-x-4-x-x-2-3-4--x-4-----4-4-4-4---2-2-2-2----|
A|----4-x-x-4-x-x-2-3-4--x-4-----4-4-4-4---2-2-2-2----|
E|----2-x-x-2-x-x---1-2--x-2---2-2-2-2-2--------------|

Repeat all 3 above

           Get your shelter……..
e|--------------------------------|
B|--------------------------------|
G|--------4----2----4-------------|
D|---2-4--4----2----4---2~--------|
A|--------2----0----2---2~--------|
E|----------------------0~--------|


Chorus
 “So get ready for the rain”
e|----------------------------------------|
B|----------------------------------------|
G|-----------6---9------------4---9-------|
D|---4---2---6---9----4---2---4---9-------|
A|---4---2---4---7----4---2---2---7-------|
E|---2---0------------2---0---------------|


e|---------------------------------------|
B|---------------------------------------|
G|-----------6---9------------7---6--9---|
D|---4---2---6---9----4---2---7---6--9---|
A|---4---2---4---7----4---2---5---4--7---|
E|---2---0------------2---0--------------|


Before 2nd verse

e|----------------------------------------------------|
B|----------------------------------------------------|
G|----------------------------------------------------|   
D|----4-x-x-4-x-x-2-3-4--x-4-----4-4-4-4---2-2-2-2----|
A|----4-x-x-4-x-x-2-3-4--x-4-----4-4-4-4---2-2-2-2----|
E|--2-2-x-x-2-x-x---1-2--x-2---2-2-2-2-2--------------|

e|---------------------------------------------------------------|
B|---------------------------------------------------------------|
G|---------------------------------------------------------------|   
D|----4-x-x-4-x-x-2-3-4-----4-2---2---------------2--------------|
A|----4-x-x-4-x-x-2-3-4---------4---4-3-2---2-3-4---4-3-2--------|
E|--2-2-x-x-2-x-x---1-2-------------------5---------------5-2----|


Verse 2  

“No you can’t change the weather…….”
e|----------------------------------------------------|
B|----------------------------------------------------|
G|----------------------------------------------------|   Play twice   
D|----4-x-x-4-x-x-2-3-4--x-4-----4-4-4-4---2-2-2-2----|
A|----4-x-x-4-x-x-2-3-4--x-4-----4-4-4-4---2-2-2-2----|
E|--2-2-x-x-2-x-x---1-2--x-2---2-2-2-2-2--------------|

  “The rain is coming…….”
e|------------------------------------|
B|------------------------------------|
G|------4---2-----4---2---9-----------|
D|--2h4-4---2-----4---2---9-----------|
A|------2---0-----2---0---7-----------|
E|------------------------------------|

e|---------------------------------------------------|
B|---------------------------------------------------|
G|---------------------------------------------------|
D|-----4-x-x-4+----2-3-4+----4-4-4-4---2-2-2-2-------|
A|-----4-x-x-----4-----------4-4-4-4---2-2-2-2-------|
E|-----2-x-x--------------2--2-2-2-2-----------------|


“Too late to say you’re sorry…..”
e|----------------------------------------------------|
B|----------------------------------------------------|
G|----------------------------------------------------| twice 
D|----4-x-x-4-x-x-2-3-4--x-4-----4-4-4-4---2-2-2-2----|
A|----4-x-x-4-x-x-2-3-4--x-4-----4-4-4-4---2-2-2-2----|
E|----2-x-x-2-x-x---1-2--x-2---2-2-2-2-2--------------|


“the water is rising….”
e|------------------------------------|
B|------------------------------------|
G|------4---2-----4---2---9-----------|
D|--2h4-4---2-----4---2---9-----------|
A|------2---0-----2---0---7-----------|
E|------------------------------------|

e|----------------------------------------------------|
B|----------------------------------------------------|
G|----------------------------------------------------| 
D|----4-x-x-4-x-x-2-3-4--x-4-----4-4-4-4---2-2-2-2----|
A|----4-x-x-4-x-x-2-3-4--x-4-----4-4-4-4---2-2-2-2----|
E|----2-x-x-2-x-x---1-2--x-2---2-2-2-2-2--------------|

           Get your shelter……..
e|----------------------------|
B|----------------------------|
G|--------4----2----4---------|
D|---2-4--4----2----4---2~----|
A|--------2----0----2---2~----|
E|----------------------0~----|

Chorus (same chords)

Bridge

e|----------------------------------------------------------------------------|
B|----------------------------------------------------------------------------|
G|----------------------------------------------------------------------------|
D|---4-4---6-6-6-----7-7---6-6--2------4-4---6-6-6-----7-7---9----------------|
A|---4-4---6-6-6-----7-7---6-6--2------4-4---6-6-6-----7-7---9-----7h9p7------|
E|---2-2---4-4-4-----5-5---4-4---------2-2---4-4-4-----5-5---7—7h9-------9----|

e|----------------------------------------------------------------------------|
B|----------------------------------------------------------------------------|
G|----------------------------------------------------------------------------|
D|---4-4---6-6-6-----7-7---6-6--2------4-4---6-6-6-----7-7---9----------------|
A|---4-4---6-6-6-----7-7---6-6--2------4-4---6-6-6-----7-7---9----------------|
E|---2-2---4-4-4-----5-5---4-4---------2-2---4-4-4-----5-5---7----------------|


Solo
e|----------------------------------------|
B|----------------------------------------|
G|-----------6---9------------4---7--6----| Play twice
D|---4---2---6---9----4---2---4---7--6----|
A|---4---2---4---7----4---2---2---5--4----|
E|---2---0------------2---0---------------|


e|----------------------------------------------------------------------------|
B|----------------------------------------------------------------------------|
G|----------------------------------------------------------------------------|
D|---4-4---6-6-6-----7-7---6-6--2------4-4---6-6-6-----7-7---9----------------|
A|---4-4---6-6-6-----7-7---6-6--2------4-4---6-6-6-----7-7---9-----7h9p7------|
E|---2-2---4-4-4-----5-5---4-4---------2-2---4-4-4-----5-5---7—7h9-------9----|

e|----------------------------------------------------------------------------|
B|----------------------------------------------------------------------------|
G|----------------------------------------------------------------------------|
D|---4-4---6-6-6-----7-7---6-6--2------4-4---6-6-6-----7-7---9----------------|
A|---4-4---6-6-6-----7-7---6-6--2------4-4---6-6-6-----7-7---9----------------|
E|---2-2---4-4-4-----5-5---4-4---------2-2---4-4-4-----5-5---7----------------|


Back to chorus 
    |
                                               
e|---------------------------------------|      
B|---------------------------------------|      
G|-----------6---9------------7---6--9---|      
D|---4---2---6---9----4---2---7---6--9---|play 4 times
A|---4---2---4---7----4---2---5---4--7---|
E|---2---0------------2---0--------------| 

Ends on an F#5

Please rate





Comments


Popular Firehouse tabs & chords
Love Of A Lifetime Chords
Sleeping With You Chords
You Are My Religion Chords
Here For You Tabs
Here For You 6 Tabs
I Live My Life For You Tabs
I Live My Life For You 3 Tabs
Dont Treat Me Bad Ukulele
The Day The Week And The Weather Ukulele
When I Look Into Your Eyes Ukulele


Song lyrics



↑ Back to top | Tablatures and chords are parodies/interpretations of the original songs. You may use it for private study, scholarship, research or language learning purposes only
© 2014 AZChords.com Contact us | Privacy policy | DMCA | Add/correct tabs | Request tabs | Top 50 tabs