» » »

Call Of The Night Tabs (ver.1)

Artists:  A B C D E F G H I J K L M N O P Q R S T U V W X Y Z # 

Call Of The Night Tabs (ver.1)

Firehouse
Rating:
5/5 (1 vote)

Hard to play? Try these video lessons and learn fast.
                PTL
  
                 Firehouse – Call of the night

                          From O2


Tuning: std
This is tabbed for 1 guitar only

Intro and main riff throughout the song
e|-----------------------------------------------|
B|-----------------------------------------------|
G|--------------------1--------------------------|
D|-----------2h4------------2-----1---2-1--------|
A|----15\----2h4--------------------------2-0----|
E|----15\---------2-2---0-0---0-0---0------------|
                  . .   . .   . .   .

e|------------------------------------|
B|------------------------------------|
G|-----------1------------------------|
D|--2h4------------2-----1------2-----|
A|--2h4-------------------------2-----| 
E|-------2-2---0-0---0-0---0--0-------|


Verses
e|--------------5-5-5-------------------|
B|--------------5-5-5---------9---------|
G|------2-------6-6-6--9----------------|
D|------2-2~----7-7-7—-9----/9----------|
A|--------2~----7-7-7--7---------7------|
E|----0---------5-5-5------------5------|

e|-----------------------------------------------|
B|-----------------------------------------------|
G|--------------------1--------------------------|
D|-----------2h4------------2-----1---2-1--------|
A|----15\----2h4--------------------------2-0----|
E|----15\---------2-2---0-0---0-0---0------------|
                  . .   . .   . .   .

e|-----------------------------------|
B|-----------------------------------|
G|-----------1-----------------------|
D|--2h4------------2-----1-----------|
A|--2h4------------------------------| 
E|-------2-2---0-0---0-0---0---------|

Repeat all above once


Pre chorus
e|-------------------------------------------------------------|
B|-------------------------------------------------------------|
G|------7----9----7----9--10-9----7----9----6----9-9999999-----|
D|----9-7----9----7----9---9-9-9--7----9----6----9-9999999-----|
A|----7-5----7----5----7----------5----7----4----7-7777777-----|
E|-------------------------------------------------------------|
                                                   .......

Chorus same as the intro

Before the solo (with Flanger effect)

e|--------------------------------------|
B|--------------------------------------|
G|--------------------------------------|
D|----2----4----7----9----2-------------|
A|----2----4----7----9----2-------------|
E|--0-----------5----7-------00000000---|
                             ........

Rhythm for solo same as the verse and prechorus

Then Bass solo

Lastly Pick slide before outro chorus

Outro chorus slightly different

e|-----------------------------------------------|
B|-----------------------------------------------|
G|--------------------1--------------------------|
D|-----------2h4------------2-----1---2-1--------|
A|----15\----2h4--------------------------2-0----|
E|----15\---------2-2---0-0---0-0---0------------|
                  . .   . .   . .   .

e|------------------------------------|
B|------------------------------------|
G|-----------1------------------999---|
D|--2h4------------2-----1------999---|
A|--2h4-------------------------777---|
E|-------2-2---0-0---0-0---0--0-------|


Till the end




| /  slide up
| \  slide down
| h  hammer-on
| p  pull-off
| ~  let ring
| +  harmonic
| x  Mute note
| v  vibrato
| . palm mute



Verse 1:
When the sun goes down that's when I start my day 
On the loose the night time's calling me 

Prechorus:
Out of control I don't know where to begin 
it’s  on my back it's under my skin 
Can't break away it's got a hold on me

Chorus: 
Must be the call of the night 
The call of the night 

Verse 2:
When the darkness falls I get back on my feet 
Hear it calling children off the street 

Prechorus:

Chorus:
Must be the call of the night 
The call of the night 

Guitar Solo
Bass solo
Chorus till end

Please comment and rate
            
Hard to play? Try these video lessons and learn fast. | Correct




comments powered by Disqus
↑ Back to top | Tablatures and chords are parodies/interpretations of the original songs. You may use it for private study, scholarship, research or language learning purposes only