» » »

Up Finnegans Ladder Bass tabs (ver.1)

Artists:  A B C D E F G H I J K L M N O P Q R S T U V W X Y Z # 

Up Finnegans Ladder Bass tabs (ver.1)

Firehose
Rating:
0/5 (0 votes)

Hard to play? Try these video lessons and learn fast.
                Up Finnegan Ladder by fIREHOSE


Nice song, nice band, nice bassist (mike rules!)


fig 1
G--------------------------------------------|
D----------------------------------------7---|
A---------------2222---5--------5-7--7/9---9-|
E-1111--555-3---------------5/7--------------|

variation:
G--9p7------------------|
D------9-7-5------------|
A------------7----------|
E-----------------------|
fig 2 (i'm not sure about that)
G---------------------------|
D------1--------------------|
A--3-----3-5----------------|
E-------------3-------------|
            
Hard to play? Try these video lessons and learn fast. | Correct




comments powered by Disqus
↑ Back to top | Tablatures and chords are parodies/interpretations of the original songs. You may use it for private study, scholarship, research or language learning purposes only