» » »

Firehose, Cant Believe Bass tabs (ver.1)

Artists:  A B C D E F G H I J K L M N O P Q R S T U V W X Y Z # 

Cant Believe Bass tabs (ver.1)

Firehose Tabs
 Rating:
4/5 (4 votes)
Cant Believe lessons Tabs too difficult? Try these video lessons and learn fast
1
                Bassist: Mike Watt

Awesome song, awesome bass.

  *Legend*
/ - slide up
p - pull of
~ - let ring

Intro
G|------------------------------------------------------------------------|
D|--/8-/8h6---6-----------------------------------------------------------|
A|----------8------/8-/8h6--------/8-/8h6---------------------------------|
E|-------------------------8-6-----------8--4-4-4---4-4-4---4-4-4---4-4-6-|

Verse
G|------------------------------55-5-88-------------------------------------|
D|-----------------22--6-6--8-8----------8-8-6-6----------------------------|
A|-------2-2-55-5---------------------------------8-8-87-7-6-6-4-4----------|
E|---4-4-----------------------------------------------------------4-4-433--|

Chorus
G|------------------------------------------------------------------------|
D|------------------------------------------------------------------------|
A|-----/6--------/6--------/8-------/8-------/6-------/6-------/8~--------|
E|--4---------4---------6--------6--------4--------4--------6-------------|

Outro, he improvises around Ab - Bb here. You can try something like this:
G|---------------------------------------------------|
D|---------6-/8-6---6--------------------------------|
A|------6---------8---8-6-4-----/8-------/8-6--------|
E|---4-----------------------6--------6-------6-5-4--|

Or something scale-like:
G|-----------------------8--10--13---/13--10--------------------------------|
D|-------------2--5---8----------------------13--11-10----------------------|
A|-------2--5-------------------------------------------13-11---------------|
E|--4---------------------------------------------------------14-13--11--6--|

So that's it. Quiet easy.. Enjoy!
            
Submit corrections

comments powered by Disqus
↑ Back to top | Firehose Bass for Cant Believe. Lyrics for acoustic guitar and electric guitar. 1 Tablatures and chords are parodies/interpretations of the original songs. You may use it for private study, scholarship, research or language learning purposes only