» » »

Firehose, Another Theory Shot To Shit Bass tabs (ver.1)

Artists:  A B C D E F G H I J K L M N O P Q R S T U V W X Y Z # 

Another Theory Shot To Shit Bass tabs (ver.1)

Firehose Tabs
Rating:
5/5 (2 votes)
Another Theory Shot To Shit lessons Tabs too difficult? Try these video lessons and learn fast
                Another Theory Shot to sh*t
fIREHOSE
Ragin' Full On

Nice and easy tune... the order of riffs is pretty straight forwards.  On live versions, 
plays a few harmonics in the interlude, but it is mostly the A harmonic on the D string 
fret on the D)

Intro/Interlude-

G-------------4---7---------------------------|
D-------5-4-----5---7-5-----------------------|
A-5---------5-----------7---------------------|
E---3-7---------------------------------------|

Verse-
(Play very quietly and staccato)

G--------------------------------------------|
D--------------------------------------------|
A-2-3-5--------------------------------------|
E--------------------------------------------|

Chorus-

G--------10----------5--------------------------|
D---7-------10----------------------------------|
A-5----8-------8--3------2-3-4------------------|
E----------------------3------------------------|
            
Submit corrections

comments powered by Disqus
↑ Back to top | Firehose Bass for Another Theory Shot To Shit. Lyrics for acoustic guitar and electric guitar. Tablatures and chords are parodies/interpretations of the original songs. You may use it for private study, scholarship, research or language learning purposes only