» » »

Extraordinary Machine Tabs (ver.1)

Artists:  A B C D E F G H I J K L M N O P Q R S T U V W X Y Z # 

Extraordinary Machine Tabs (ver.1)

Fiona Apple
Rating:
3/5 (1 vote)

Hard to play? Try these video lessons and learn fast.
                Extraordinary Machine Tabs. Fiona Apple

Tuning: Eb Ab Db Gb Bb Eb


Eb ----------------------------------------------------------13-----|l
Bb -----------7--7------------7--7------------7--7------------------|l
Gb -----------7--7------------7--7------------7--7------------------|l
Db -------7----------------7----------------7-----------------------|l
Ab ---5----------------6----------------5---------------------------|l
Eb -----------------------------------------------------------------|l

Eb -----------------------------------------------------------------|l
Bb -----------7--7------------7--7------------7--7------------------|l
Gb -----------7--7------------7--7------------7--7------------------|l
Db -------7----------------7----------------7-----------------------|l
Ab ---5----------------6----------------5---------------------------|l
Eb -----------------------------------------------------------------|l

Verse 1:

Eb ----------------------------------------------------------13-----|l
Bb -----------7--7------------7--7------------7--7------------------|l
Gb -----------7--7------------7--7------------7--7------------------|l
Db -------7----------------7----------------7-----------------------|l
Ab ---5----------------6----------------5---------------------------|l
Eb -----------------------------------------------------------------|l

Eb -----------------------------------------------------------------|l
Bb -----------7--7------------7--7----------10-----8-----7----------|l
Gb -----------7--7------------7--7----------11-----8-----7----------|l
Db -------7----------------7----------------------------------------|l
Ab ---5----------------6----------------5---------------------------|l
Eb -----------------------------------------------------------------|l


Eb ----------------------------------------------------------------------------------------|l
Bb -----------7--7------------7--7------------9--9---------9--9-----------11---------------|l
Gb -----------7--7------------7--7------------9--9---------9--9-----------11---------------|l
Db -------7----------------7----------------9-------------9-------------11-----------------|l
Ab ---5----------------6----------------7--------------8-------------9---------------------|l
Eb ----------------------------------------------------------------------------------------|l

Eb -----------------------------------------------------------------|l
Bb ----------------------------7------------------------------------|l
Gb ------------6--------------7-------------7-----------------------|l
Db ------------7----------7---------7------7------------------------|l
Ab -------7-----------5-------------7------5------------------------|l
Eb ---5------------------------------5------------------------------|l

Verse 2: Same as 1st


Chorus:

Eb -----------------------------------------------------------------|l
Bb -----------3---------------5----------------6---6----------------|l
Gb -----------4---------------5----------------7---7----------------|l
Db -------4----------------5---------------7------------------------|l
Ab ---2----------------3----------------5---------------------------|l
Eb -----------------------------------------------------------------|l

Eb ---------------------------------------------------------------|l
Bb -----------3---------------5---------------6---6---------------|l
Gb -----------4---------------5---------------7---7---------------|l
Db -------4----------------5--------------------------------------|l
Ab ---2----------------3----------------5-------------------------|l
Eb ---------------------------------------------------------------|l

Eb  -------------------------------0--------------------------------------------------------------------|l
Bb  -------------------------------0------------------7----------------------------7--------------------|l
Gb  --4----4----4---------------1------------------7--------------6-------------7----6----7-------------|l
Db ---5----5----5------------------------------7------------------7----------7--------7----7------------|l
Ab  ---5----5----5----------2---------------5-----------------7----------5------------7----5------------|l
Eb ----3----3----3-------0---------------------------------5---------------------------5----------------|l


Verse 3 and 4: Same as 1st

Bridge:

Eb ----------------------------------------------------------------------|l
Bb ----------------------------------------------------------------------|l
Gb ----7---7---7-------7----7---7--------10---10---10---x----------------|l
Db ----8---8---8-------8----8---8--------11---11---11---x----------------|l
Ab ----8---8---8-------8----8---8--------11---11---11---x----------------|l
Eb ----6---6---6-------5----5---5---------9-----9----9----x--------------|l


Eb -----------------------------------------------------------------------6-s--------|l
Bb -----------------------------------------------------------------------8-t--------|l
Gb -------10---10---10--------------7---7---7------7---7---7-----8-r-----------------|l
Db -------11---11---11--------------8---8---8------8---8---8-----8-u-----------------|l
Ab -------11---11---11--------------8---8---8------8---8---8-----6-m-----------------|l
Eb --------9-----9----9----9--8--7--6---6---6------5---5---5--------once-------------|l

Refrain:

Eb --------------------------------------------------------------------------|l
Bb -----------7--7------------7--7------------7--7---------------------------|l
Gb -----------7--7------------7--7------------7--7---------------------------|l
Db -------7----------------7----------------7--------------------------------|l
Ab ---5----------------6----------------5---------------5--4--3--2-----------|l
Eb --------------------------------------------------------------------------|l

Chorus x2
            
Hard to play? Try these video lessons and learn fast. | Correct




comments powered by Disqus
↑ Back to top | Tablatures and chords are parodies/interpretations of the original songs. You may use it for private study, scholarship, research or language learning purposes only