» » »

Vargtimmen Tabs (ver.1)

Artists:  A B C D E F G H I J K L M N O P Q R S T U V W X Y Z # 

Vargtimmen Tabs (ver.1)

Finntroll
Rating:
0/5 (0 votes)

Hard to play? Try these video lessons and learn fast.
                Standard E Tuning

riff A (acoustic intro)
|-----------------------3-3-----------------------------------|
|-6-5-3--6-5-3----3h5h6-----3-3-------------------------------|
|--------------5----------------------------------------------|
|-------------------------------------------------------------|
|-------------------------------------------------------------|
|-------------------------------------------------------------|
						(4x)
riff B (Chords)
|-------------------------------------------------------------|
|-------------------------------------------------------------|
|-------------------------------------------------------------|
|-7--77--5---55--77-7-5---7-7--10-10---9/10\9--7--------------|
|-5--55--3---33--55-5-3---5-5---8--8---7/-8\7--5--------------|
|-------------------------------------------------------------|
						(2x)
riff C (Chords)
|-------------------------------------------------------------|
|-------------------------------------------------------------|
|-------------------------------------------------------------|
|-55-555--44-444--55-5/7--\5\4---444--7-----------------------|
|-33-333--22-222--33-3/5--\3\2---222--5-----------------------|
|-------------------------------------------------------------|
				 XXX -> Palm mute
riff D (Chords)
|-------------------------------------------------------------|
|-------------------------------------------------------------|
|-------------------------------------------------------------|
|-77-777--55-555--------5h7-5h--------------------------------|
|-55-555--33-333--5h7h8--------8-7h8p7-5----------------------|
|-------------------------------------------------------------|
						(1x)
riff B (Chords)
|-------------------------------------------------------------|
|-------------------------------------------------------------|
|-------------------------------------------------------------|
|-7--77--5---55--77-7-5---7-7--10-10---9/10\9--7--------------|
|-5--55--3---33--55-5-3---5-5---8--8---7/-8\7--5--------------|
|-------------------------------------------------------------|
						(2x)
riff C (Chords)
|-------------------------------------------------------------|
|-------------------------------------------------------------|
|-------------------------------------------------------------|
|-55-555--44-444--55-5/7--\5\4---444--7-----------------------|
|-33-333--22-222--33-3/5--\3\2---222--5-----------------------|
|-------------------------------------------------------------|
				 XXX -> Palm mute
riff D (Chords)
|-------------------------------------------------------------|
|-------------------------------------------------------------|
|-------------------------------------------------------------|
|-77-777--55-555--------5h7-5h--------------------------------|
|-55-555--33-333--5h7h8--------8-7h8p7-5----------------------|
|-------------------------------------------------------------|
						(1x)
riff B (Chords)
|-------------------------------------------------------------|
|-------------------------------------------------------------|
|-------------------------------------------------------------|
|-7--77--5---55--77-7-5---7-7--10-10---9/10\9--7--------------|
|-5--55--3---33--55-5-3---5-5---8--8---7/-8\7--5--------------|
|-------------------------------------------------------------|
						(2x)
riff C (Chords)
|-------------------------------------------------------------|
|-------------------------------------------------------------|
|-------------------------------------------------------------|
|-55-555--44-444--55-5/7--\5\4---444--7-----------------------|
|-33-333--22-222--33-3/5--\3\2---222--5-----------------------|
|-------------------------------------------------------------|
				 XXX -> Palm mute
riff D (Chords)
|-------------------------------------------------------------|
|-------------------------------------------------------------|
|-------------------------------------------------------------|
|-77-777--55-555--------5h7-5h--------------------------------|
|-55-555--33-333--5h7h8--------8-7h8p7-5----------------------|
|-------------------------------------------------------------|
						(1x)
riff C (Chords)
|-------------------------------------------------------------|
|-------------------------------------------------------------|
|-------------------------------------------------------------|
|-55-555--44-444--55-5/7--\5\4---444--7-----------------------|
|-33-333--22-222--33-3/5--\3\2---222--5-----------------------|
|-------------------------------------------------------------|
				 XXX -> Palm mute
riff D (Chords)
|-------------------------------------------------------------|
|-------------------------------------------------------------|
|-------------------------------------------------------------|
|-77-777--55-555--------5h7-5h--------------------------------|
|-55-555--33-333--5h7h8--------8-7h8p7-5----------------------|
|-------------------------------------------------------------|
						(1x)
1:46 (CD-Time)

riff E
|-------------------------------------------------------------|
|-------------------------------------------------------------|
|-------------------------------------------------------------|
|-77-5/7---10--12---7-------------------7---------------------|
|-55-3/5----8--10---5-------------------5---------------------|
|-------------------------------------------------------------|

1:59 (CD-Time)
riff F (Chords) (play it palm-muted)
|-------------------------------------------------------------|
|-------------------------------------------------------------|
|-------------------------------------------------------------|
|-77-77-77-77---77-77-77-77---77-77-77-77---77-77-77-77-------|
|-55-55-55-55---55-55-55-55---55-55-55-55---55-55-55-55-------|
|-------------------------------------------------------------|
  xx xx xx xx   xx xx xx xx   xx xx xx xx   xx xx xx xx

riff G (solo under riff F)
|-------------------------------------------------------------|
|-------------------------------------------------------------|
|-3~-------------5-5----------3~-------------5-5--------------|
|----7\5--5h7h8-----5-5----------7\5--5h7h8------5-5----------|
|-------------------------------------------------------------|
|-------------------------------------------------------------|
            
Hard to play? Try these video lessons and learn fast. | Correct




comments powered by Disqus
↑ Back to top | Tablatures and chords are parodies/interpretations of the original songs. You may use it for private study, scholarship, research or language learning purposes only