» » »

Trollhammaren Tabs (ver.2)

Artists:  A B C D E F G H I J K L M N O P Q R S T U V W X Y Z # 

Trollhammaren Tabs (ver.2)

Finntroll
Rating:
4/5 (2 votes)

Hard to play? Try these video lessons and learn fast.
                Hi there guys. 
This tab is for the entire song, because the intro tab is good, but i thought you 
might want the entire thing.

Just as a note, i have said here it is in standard tuning. However, I finds it 
works well in D (DGCFAD) or C (CFA#D#GC).

F - xx3211  G - 5433  E - 2100

Intro
Riff 1 x2
E||---------------3-1--------------|----------------1~-------------|
B||----3-3-1/3--3-----3-1----------|------------1h3---1h-----------|
G||--0--------------------3-0--0-2-|--3h2-0-2h3---------2---2-0----|
D||--------------------------------|----------------------3--------|
A||--------------------------------|-------------------------------|
E||--------------------------------|-------------------------------|
     
                                                        
---------------3-1--------------|-------------1---------------|---|
----3-3-1/3--3-----3-1----------|----------------1------------|---|
--0--------------------3-0--0-2-|--3h2-0-2h3-------2---2-0----|---|
--------------------------------|--------------------3--------|---|
--------------------------------|-----------------------------|---|
--------------------------------|-----------------------------|---|    
                                                      


 Riff 2 x2                                                         
------1---0----------1---0------|------1---0-------------------|
----3---3/---3-1---3---3/---3-1-|----3---3/---3-1--------------|
--3--------------3--------------|--3--------------0-2-0---0----|
--------------------------------|-----------------------3------|
--------------------------------|------------------------------|
--------------------------------|------------------------------|


Riff 3 x2                                                    [After 2nd time]
--------------------------------|------------------------------||----|
--3--3-3-3-3--3--3--1-1---------|--3--3-3-3-3--3--3--1---------||--4-|
--4--4-4-4-4--4--4--2-2---------|--4--4-4-4-4--4--4--2---------||--5-|
--5--5-5-5-5--5--5--3-3---------|--5--5-5-5-5--5--5--3---------||--6-|
--5--5-5-5-5--5--5--3-3---------|--5--5-5-5-5--5--5--3---------||--6-|
--3--3-3-3-3--3--3--1-1---------|--3--3-3-3-3--3--3--1---------||--4-|

Verse 1 - riff 3 x 2
Chorus - riff 2 x 2
Verse 2 - riff 1 x 2
Chorus - riff 2 x 2
Verse 3 - riff 3 x 2

Bridge
F F G E | F F G E |

Solo
--------------------------------|------------------------------|
--16~~~-------------------------|--16~~~-----------------------|
--------------------------------|------------------------------|
--------------------------------|------------------------------|
--------------------------------|------------------------------|
--------------------------------|------------------------------|

--------------------------------|---Not sure about this bit----|
--16~~~-------------------------|------------------------------|
--------------------------------|--15^------13^----------------|
--------------------------------|-------------------13^--------|
--------------------------------|------------------------------|
--------------------------------|------------------------------|

Bridge (again)

Riff 3 x 2

Verse 4 - riff 1 x 2
Chorus - riff 2 x4

Thank guys - hope you like this and have fun :D
Long live Finntroll!
            
Hard to play? Try these video lessons and learn fast. | Correct




comments powered by Disqus
↑ Back to top | Tablatures and chords are parodies/interpretations of the original songs. You may use it for private study, scholarship, research or language learning purposes only