» » »

Trolhammaren Tabs (ver.1)

Artists:  A B C D E F G H I J K L M N O P Q R S T U V W X Y Z # 

Trolhammaren Tabs (ver.1)

Finntroll
Rating:
0/5 (0 votes)

Hard to play? Try these video lessons and learn fast.
                Haven't found any decent tabs for this song so I thought, you know what-f**k it. Here's 
my attempt. I know for the actual song the tuning is a bit lower so you can work it out 

I know this may be in the wrong octave but if you're feeling man enough try transposing 
the whole song with these notes (the note not the fret number) down to about C standard 
I believe it is. Have a mess around with it, but I'm 98% sure its accurate


Intro/hook line
E-------------------15-13------------------------------------13---------------|
B-------15-15-13-15------15-13---------------------------------15-13----------|
G---12-------------------------15-12----12-14-15-14-12-14-15---------15-14-12-|
D-----------------------------------------------------------------------------|
A-----------------------------------------------------------------------------|
E-----------------------------------------------------------------------------|
This riff is played 3 times but for the forth time a variation is played an 2 octaves up
E------------------------------------------------------------------------------|
B------------------------------------------------------------------------------|
G------------------12-10-------------------------------------10----------------|
D------12-12-10-12-------12-10----------------------------------12-10----------|
A---10-------------------------13-10----10-12-13-12-10-12-13----------13-12-10-|
E------------------------------------------------------------------------------|

This Riff is played from occasion, you can play it how you like-personally like to sweep pick it.

Play the first riff three times and at the end of the bar the phrase following. On the 
final bar, end with the chord
E--[-----------------]--[---------------]--[----------------]
B--[-------6---5-----]--[---------------]--[----------------]
G--[-----7---7---7---]--[---------------]--[----------------]
D--[---8-----------8-]--[-12-10---------]--[--8///----------]
A--[-----------------]--[-------13-12-10]--[--8///-Let ring-]
E--[-----------------]--[---------------]--[--6///----------]

These chords are played throughout by the rhythm guitar, palm mute when necessary
E------------------------------------------------------------|
B------------------------------------------------------------|
G-------------------555-------555----------------------------|
D---777--777---555--555--222--555--555-----------------------|
A---777--777---555--333--222--333--555-----------------------|
E---555--555---333-------000-------333-----------------------|

This riff is repeated
E--[-----------------]--[---------------]--[----------------]
B--[-------6---5-----]--[---------------]--[----------------]
G--[-----7---7---7---]--[---------------]--[----------------]
D--[---8-----------8-]--[-12-10---------]--[-7-77777-755----]
A--[-----------------]--[-------13-12-10]--[-7-77777-755----]
E--[-----------------]--[---------------]--[-5-55555-533----]

Couldn't really be arsed tabbing the keyboard solo as it took a while to learn by ear 
and its long. Any way, enjoy!
            
Hard to play? Try these video lessons and learn fast. | Correct




comments powered by Disqus
↑ Back to top | Tablatures and chords are parodies/interpretations of the original songs. You may use it for private study, scholarship, research or language learning purposes only