>
 >
Solsagan

Solsagan Guitar Tabs

Finntroll - Solsagan chords, tabs, tablatures, lyrics

Guitar lessons | Add/correct | Request | Top 50 tabs Artists:  A B C D E F G H I J K L M N O P Q R S T U V W X Y Z 0-9

Solsagan Guitar Tabs – Finntroll

CD, Sheet music, Poster

Do you like Solsagan? Share with your friends now
Tabs



Finntroll - Solsagan
D Standard Tuning - D G C F A D 
180 BPM
4 4 Timing

INTRO

                     S S S S S S S S S S S S S S S S  
D||-------|-------|----------------------------------|
A||-------|-------|----------------------------------|
F||-------|-------|--7-7-7-7-------------------------|
C||-------|-------|----------0-0-0-0-8-8-8-8-0-0-0-0-|
G||-------|-------|----------------------------------|
D||-------|-------|----------------------------------|


  S S S S S S S S S S S S S S S S    S S S S S S S S S S S S S S S S  
----------------------------------|----------------------------------|
----------------------------------|----------------------------------|
----------------------------------|--7-7-7-7-------------------------|
--7-7-7-7-0-0-0-0-5-5-7-7-8-8-8-8-|----------0-0-0-0-8-8-8-8-0-0-0-0-|
----------------------------------|----------------------------------|
----------------------------------|----------------------------------|


  S S S S S S S S S S S S S S S S    S S S S S S S S S S S S S S S S  
----------------------------------|----------------------------------|
----------------------------------|----------------------------------|
----------------------------------|--7-7-7-7-------------------------|
--7-7-7-7-0-0-0-0-5-5-7-7-8-8-8-8-|----------0-0-0-0-8-8-8-8-0-0-0-0-|
----------------------------------|----------------------------------|
----------------------------------|----------------------------------|


  S S S S S S S S S S S S S S S S    S S S S S S S S S S S S S S S S  
----------------------------------|----------------------------------|
----------------------------------|----------------------------------|
----------------------------------|----------------------------------|
--7-7-7-7-0-0-0-0-5-5-7-7-8-8-8-8-|--4-4-4-4---------7-7-7-7-4-4-4-4-|
----------------------------------|----------4-4-4-4-----------------|
----------------------------------|----------------------------------|


  S S S S S S S S S S S S S S S S    S S S S S S S S S S S S S S S S  
----------------------------------|----------------------------------|
----------------------------------|----------------------------------|
--6-6-6-6-------------------------|--7-7-7-7-------------------------|
----------4-4-4-4-5-5-7-7-8-8-8-8-|----------0-0-0-0-8-8-8-8-0-0-0-0-|
----------------------------------|----------------------------------|
----------------------------------|----------------------------------|


  S S S S S S S S S S S S S S S S    S S S S S S S S S S S S S S S S  
----------------------------------|----------------------------------|
----------------------------------|----------------------------------|
----------------------------------|--7-7-7-7-------------------------|
--7-7-7-7-0-0-0-0-5-5-7-7-8-8-8-8-|----------0-0-0-0-8-8-8-8-0-0-0-0-|
----------------------------------|----------------------------------|
----------------------------------|----------------------------------|


  S S S S S S S S S S S S S S S S    S S S S S S S S S S S S S S S S  
----------------------------------|----------------------------------|
----------------------------------|----------------------------------|
----------------------------------|--7-7-7-7-------------------------|
--7-7-7-7-0-0-0-0-5-5-7-7-8-8-8-8-|----------0-0-0-0-8-8-8-8-0-0-0-0-|
----------------------------------|----------------------------------|
----------------------------------|----------------------------------|


  S S S S S S S S S S S S S S S S    S S S S S S S S S S S S S S S S  
----------------------------------|----------------------------------|
----------------------------------|----------------------------------|
----------------------------------|----------------------------------|
--7-7-7-7-0-0-0-0-5-5-7-7-8-8-8-8-|--4-4-4-4---------7-7-7-7-4-4-4-4-|
----------------------------------|----------4-4-4-4-----------------|
----------------------------------|----------------------------------|


  S S S S S S S S S S S S S S S S    S S S S S S S S S S S S S S S S  
----------------------------------|----------------------------------|
----------------------------------|----------------------------------|
--6-6-6-6-------------------------|--7-7-7-7-------------------------|
----------4-4-4-4-5-5-7-7-8-8-8-8-|----------0-0-0-0-8-8-8-8-0-0-0-0-|
----------------------------------|----------------------------------|
----------------------------------|----------------------------------|


  S S S S S S S S S S S S S S S S    S S S S S S S S S S S S S S S S  
----------------------------------|----------------------------------|
----------------------------------|----------------------------------|
----------------------------------|--7-7-7-7-------------------------|
--7-7-7-7-0-0-0-0-5-5-7-7-8-8-8-8-|----------0-0-0-0-8-8-8-8-0-0-0-0-|
----------------------------------|----------------------------------|
----------------------------------|----------------------------------|


  S S S S S S S S S S S S S S S S    S S S S S S S S S S S S S S S S  
----------------------------------|----------------------------------|
----------------------------------|----------------------------------|
----------------------------------|--7-7-7-7-------------------------|
--7-7-7-7-0-0-0-0-5-5-7-7-8-8-8-8-|----------0-0-0-0-8-8-8-8-0-0-0-0-|
----------------------------------|----------------------------------|
----------------------------------|----------------------------------|


  S S S S S S S S S S S S S S S S    S S S S S S S S S S S S S S S S  
----------------------------------|----------------------------------|
----------------------------------|----------------------------------|
----------------------------------|----------------------------------|
--7-7-7-7-0-0-0-0-5-5-7-7-8-8-8-8-|--4-4-4-4---------7-7-7-7-4-4-4-4-|
----------------------------------|----------4-4-4-4-----------------|
----------------------------------|----------------------------------|


                                   VERSE 1
  S S S S S S S S S S S S S S S S    S S S S S S S S S S S S S S S S  
----------------------------------|----------------------------------|
----------------------------------|----------------------------------|
--6-6-6-6-------------------------|----------------------------------|
----------4-4-4-4-5-5-7-7-8-8-8-8-|----------------------------------|
----------------------------------|------------------4-4-4-4---------|
----------------------------------|--3-3-3-3-5-5-6-6---------6-6-5-5-|


                          PH                                        
  S S S S S S S S E  E    Q        S S S S S S S S S S S S S S S S  
--------------------------------|----------------------------------|
--------------------------------|----------------------------------|
--------------------------------|----------------------------------|
--------------------------------|----------------------------------|
------------------5-----<>4~----|------------------4-4-4-4---------|
--3-3-3-3-5-5-6-6----6----------|--3-3-3-3-5-5-6-6---------6-6-5-5-|


                          PH                                        
  S S S S S S S S E  E    Q        S S S S S S S S S S S S S S S S  
--------------------------------|----------------------------------|
--------------------------------|----------------------------------|
--------------------------------|--7-7-7-7-------------------------|
--------------------------------|----------0-0-0-0-8-8-8-8-0-0-0-0-|
------------------5-----<>4~----|----------------------------------|
--3-3-3-3-5-5-6-6----6----------|----------------------------------|


  S S S S S S S S S S S S S S S S    S S S S S S S S S S S S S S S S  
----------------------------------|----------------------------------|
----------------------------------|----------------------------------|
----------------------------------|--7-7-7-7-------------------------|
--7-7-7-7-0-0-0-0-5-5-7-7-8-8-8-8-|----------0-0-0-0-8-8-8-8-0-0-0-0-|
----------------------------------|----------------------------------|
----------------------------------|----------------------------------|


  S S S S S S S S S S S S S S S S    S S S S S S S S S S S S S S S S  
----------------------------------|----------------------------------|
----------------------------------|----------------------------------|
----------------------------------|----------------------------------|
--7-7-7-7-0-0-0-0-5-5-7-7-8-8-8-8-|----------------------------------|
----------------------------------|------------------4-4-4-4---------|
----------------------------------|--3-3-3-3-5-5-6-6---------6-6-5-5-|


                          PH                                        
  S S S S S S S S E  E    Q        S S S S S S S S S S S S S S S S  
--------------------------------|----------------------------------|
--------------------------------|----------------------------------|
--------------------------------|----------------------------------|
--------------------------------|----------------------------------|
------------------5-----<>4~----|------------------4-4-4-4---------|
--3-3-3-3-5-5-6-6----6----------|--3-3-3-3-5-5-6-6---------6-6-5-5-|


                          PH                                        
  S S S S S S S S E  E    Q        S S S S S S S S S S S S S S S S  
--------------------------------|----------------------------------|
--------------------------------|----------------------------------|
--------------------------------|--7-7-7-7-------------------------|
--------------------------------|----------0-0-0-0-8-8-8-8-0-0-0-0-|
------------------5-----<>4~----|----------------------------------|
--3-3-3-3-5-5-6-6----6----------|----------------------------------|


  S S S S S S S S S S S S S S S S    S S S S S S S S S S S S S S S S  
----------------------------------|----------------------------------|
----------------------------------|----------------------------------|
----------------------------------|--7-7-7-7-------------------------|
--7-7-7-7-0-0-0-0-5-5-7-7-8-8-8-8-|----------0-0-0-0-8-8-8-8-0-0-0-0-|
----------------------------------|----------------------------------|
----------------------------------|----------------------------------|


  S S S S S S S S S S S S S S S S    S S S S S S S S S S S S S S S S  
----------------------------------|----------------------------------|
----------------------------------|----------------------------------|
----------------------------------|--7-7-7-7-------------------------|
--7-7-7-7-0-0-0-0-5-5-7-7-8-8-8-8-|----------0-0-0-0-8-8-8-8-0-0-0-0-|
----------------------------------|----------------------------------|
----------------------------------|----------------------------------|


  S S S S S S S S S S S S S S S S    S S S S S S S S S S S S S S S S  
----------------------------------|----------------------------------|
----------------------------------|----------------------------------|
----------------------------------|----------------------------------|
--7-7-7-7-0-0-0-0-5-5-7-7-8-8-8-8-|--4-4-4-4---------7-7-7-7-4-4-4-4-|
----------------------------------|----------4-4-4-4-----------------|
----------------------------------|----------------------------------|


  S S S S S S S S S S S S S S S S    S S S S S S S S S S S S S S S S  
----------------------------------|----------------------------------|
----------------------------------|----------------------------------|
--6-6-6-6-------------------------|--7-7-7-7-------------------------|
----------4-4-4-4-5-5-7-7-8-8-8-8-|----------0-0-0-0-8-8-8-8-0-0-0-0-|
----------------------------------|----------------------------------|
----------------------------------|----------------------------------|


  S S S S S S S S S S S S S S S S    S S S S S S S S S S S S S S S S  
----------------------------------|----------------------------------|
----------------------------------|----------------------------------|
----------------------------------|--7-7-7-7-------------------------|
--7-7-7-7-0-0-0-0-5-5-7-7-8-8-8-8-|----------0-0-0-0-8-8-8-8-0-0-0-0-|
----------------------------------|----------------------------------|
----------------------------------|----------------------------------|


  S S S S S S S S S S S S S S S S    S S S S S S S S S S S S S S S S  
----------------------------------|----------------------------------|
----------------------------------|----------------------------------|
----------------------------------|--7-7-7-7-------------------------|
--7-7-7-7-0-0-0-0-5-5-7-7-8-8-8-8-|----------0-0-0-0-8-8-8-8-0-0-0-0-|
----------------------------------|----------------------------------|
----------------------------------|----------------------------------|


  S S S S S S S S S S S S S S S S    S S S S S S S S S S S S S S S S  
----------------------------------|----------------------------------|
----------------------------------|----------------------------------|
----------------------------------|----------------------------------|
--7-7-7-7-0-0-0-0-5-5-7-7-8-8-8-8-|--4-4-4-4---------7-7-7-7-4-4-4-4-|
----------------------------------|----------4-4-4-4-----------------|
----------------------------------|----------------------------------|


                                   VERSE 2
                                           |-3-|          |-3-|     
  S S S S S S S S S S S S S S S S    E  E  S S S E  E  E  S S S E   
----------------------------------|--------------------------------|
----------------------------------|--------------------------------|
--6-6-6-6-------------------------|--------------------------------|
----------4-4-4-4-5-5-7-7-8-8-8-8-|--------------------------------|
----------------------------------|-----5--4-5-4-------5--4-5-4----|
----------------------------------|--3-----------6--3-----------6--|


                                   |-3-|          |-3-|     
  E  E  E  E  E  E  E  E     E  E  S S S E  E  E  S S S E   
--------------------------|--------------------------------|
--------------------------|--------------------------------|
--------------------------|--------------------------------|
--------------------------|--------------------------------|
-----5-----------4--4-----|-----5--4-5-4-------5--4-5-4----|
--3-----3--6--3--------6--|--3-----------6--3-----------6--|


                                   |-3-|          |-3-|     
  E  E  E  E  E  E  E  E     E  E  S S S E  E  E  S S S E   
--------------------------|--------------------------------|
--------------------------|--------------------------------|
--------------------------|--------------------------------|
--------------------------|--------------------------------|
-----5-----------4--4-----|-----5--4-5-4-------5--4-5-4----|
--3-----3--6--3--------6--|--3-----------6--3-----------6--|


                                   |-3-|          |-3-|     
  E  E  E  E  E  E  E  E     E  E  S S S E  E  E  S S S E   
--------------------------|--------------------------------|
--------------------------|--------------------------------|
--------------------------|--------------------------------|
--------------------------|--------------------------------|
-----5-----------4--4-----|-----5--4-5-4-------5--4-5-4----|
--3-----3--6--3--------6--|--3-----------6--3-----------6--|


                           PRE-CHORUS
  E  E  E  E  E  E  E  E     E  S S E  E  E  S S E  E   
--------------------------|----------------------------|
--------------------------|----------------------------|
--------------------------|----------------------------|
--------------------------|-----7-7-7--------7-7-7-----|
-----5-----------4--4-----|--5---------8--5---------8--|
--3-----3--6--3--------6--|----------------------------|


  E  S S E  E  E  S S E  E     E  S S E  E  E  S S E  E   
----------------------------|----------------------------|
----------------------------|----------------------------|
----------------------------|----------------------------|
-----7-7-7--5-----7-7-7--5--|-----7-7-7--------7-7-7-----|
--7------------7------------|--8---------8--8---------8--|
----------------------------|----------------------------|


   E   S  S  E  E   E   S  S  E  E     E  S S E  E  E  S S E  E   
------------------------------------|----------------------------|
------------------------------------|----------------------------|
------------------------------------|----------------------------|
------10-10-10--9------10-10-10--9--|-----7-7-7--------7-7-7-----|
--10---------------10---------------|--5---------8--5---------8--|
------------------------------------|----------------------------|


  E  S S E  E  E  S S E  E     E  S S E  E  E  E  E  E   
----------------------------|---------------------------|
----------------------------|---------------------------|
----------------------------|---------------------------|
-----7-7-7--5-----7-7-7--5--|-----7-7-7-----------------|
--7------------7------------|--8---------8--7--5--4--7--|
----------------------------|---------------------------|


                        CHORUS
  Q    Q    Q    E  E     E  S S S S E  S S S S E  S S  
-----------------------|-------------------------------|
-----------------------|-------------------------------|
-----------------------|--7--7-7-7-7-7--7-7-7-7-7--7-7-|
--7---------7-------7--|--5--5-5-5-5-5--5-5-5-5-5--5-5-|
--5----7----5----7--5--|--5----------5----------5------|
-------5---------5-----|-------------------------------|


  E  S S S S E  S S S S E  S S    E  S S S S E  S S S S E  S S  
-------------------------------|-------------------------------|
-------------------------------|-------------------------------|
--7----------7----------7------|--5----------5----------5------|
--7--7-7-7-7-7--7-7-7-7-7--7-7-|--5--5-5-5-5-5--5-5-5-5-5--5-5-|
--5--5-5-5-5-5--5-5-5-5-5--5-5-|--3--3-3-3-3-3--3-3-3-3-3--3-3-|
-------------------------------|-------------------------------|


  E  S S S S E  S S S S E  S S    E  S S S S E  S S S S E  S S  
-------------------------------|-------------------------------|
-------------------------------|-------------------------------|
--7----------7----------7------|--7--7-7-7-7-7--7-7-7-7-7--7-7-|
--7--7-7-7-7-7--7-7-7-7-7--7-7-|--5--5-5-5-5-5--5-5-5-5-5--5-5-|
--5--5-5-5-5-5--5-5-5-5-5--5-5-|--5----------5----------5------|
-------------------------------|-------------------------------|


  E  S S S S E  S S S S E  S S    E  S S S S E  Q    Q     
-------------------------------|--------------------------|
-------------------------------|--------------------------|
-------------------------------|--------------------------|
--7--7-7-7-7-7--7-7-7-7-7--7-7-|--5--5-5-5-5-5-------5----|
--5--5-5-5-5-5--5-5-5-5-5--5-5-|--3--3-3-3-3-3--7----3----|
-------------------------------|----------------5---------|


  E  Q    E  Q    E  E     E  S S S S E  S S S S E  S S  
------------------------|-------------------------------|
------------------------|-------------------------------|
---------------------5--|--7--7-7-7-7-7--7-7-7-7-7--7-7-|
--7--7----5--7----7--3--|--5--5-5-5-5-5--5-5-5-5-5--5-5-|
--5--5----3--5----5-----|--5----------5----------5------|
------------------------|-------------------------------|


  E  S S S S E  S S S S E  S S    E  S S S S E  S S S S E  S S  
-------------------------------|-------------------------------|
-------------------------------|-------------------------------|
--7----------7----------7------|--5----------5----------5------|
--7--7-7-7-7-7--7-7-7-7-7--7-7-|--5--5-5-5-5-5--5-5-5-5-5--5-5-|
--5--5-5-5-5-5--5-5-5-5-5--5-5-|--3--3-3-3-3-3--3-3-3-3-3--3-3-|
-------------------------------|-------------------------------|


  E  S S S S E  S S S S E  S S    E  S S S S E  S S S S E  S S  
-------------------------------|-------------------------------|
-------------------------------|-------------------------------|
-------------------------------|-------------------------------|
--5----------5----------5------|--5----------5----------5------|
--5--5-5-5-5-5--5-5-5-5-5--5-5-|--5--5-5-5-5-5--5-5-5-5-5--5-5-|
--3--3-3-3-3-3--3-3-3-3-3--3-3-|--3--3-3-3-3-3--3-3-3-3-3--3-3-|


  E  S S S S E  S S S S E  S S    E  S S S S E  Q    Q     
-------------------------------|--------------------------|
-------------------------------|--------------------------|
-------------------------------|--------------------------|
--8----------8----------8------|--5--5-5-5-5-5-------5----|
--8--8-8-8-8-8--8-8-8-8-8--8-8-|--3--3-3-3-3-3--7----3----|
--6--6-6-6-6-6--6-6-6-6-6--6-6-|----------------5---------|


                        TRANSITION
  E  Q    E  Q    Q       E  S S S S S S E  S S S S S S  
-----------------------|--------------------------------|
-----------------------|--------------------------------|
-----------------------|--------------------------------|
--7--7----5--7----7----|--------------------------------|
--5--5----3--5----5----|--5-----------------------------|
-----------------------|--3--3-3-3-3-3-3-3--3-3-3-3-3-3-|


  E  S S S S S S E  E  E  E     E  S S S S E  E  S S S S E   
-----------------------------|------------------------------|
-----------------------------|------------------------------|
-----------------------------|------------------------------|
-----------------------------|------------------------------|
--5-----------------4--4-----|--5----------5--5----------5--|
--3--3-3-3-3-3-3-3--------6--|--3--3-3-3-3-3--3--3-3-3-3-3--|


                   PH                                      
  Q    Q    Q      Q        E  S S S S S S E  S S S S S S  
-------------------------|--------------------------------|
-------------------------|--------------------------------|
-------------------------|--------------------------------|
-----------------<>8~----|--------------------------------|
-------4----7------------|--5-----------------------------|
--6----------------------|--3--3-3-3-3-3-3-3--3-3-3-3-3-3-|


  E  S S S S S S E  E  E  E     E  S S S S E  E  S S S S E   
-----------------------------|------------------------------|
-----------------------------|------------------------------|
-----------------------------|------------------------------|
-----------------------------|------------------------------|
--5-----------------4--4-----|--5----------5--5----------5--|
--3--3-3-3-3-3-3-3--------6--|--3--3-3-3-3-3--3--3-3-3-3-3--|


                   PH      PRECHORUS                           
  Q    Q    Q      Q        E  S S E  E  E  S S E  E   
-------------------------|----------------------------|
-------------------------|----------------------------|
-------------------------|----------------------------|
-----------------<>8~----|-----7-7-7--------7-7-7-----|
-------4----7------------|--5---------8--5---------8--|
--6----------------------|----------------------------|


  E  S S E  E  E  S S E  E     E  S S E  E  E  S S E  E   
----------------------------|----------------------------|
----------------------------|----------------------------|
----------------------------|----------------------------|
-----7-7-7--5-----7-7-7--5--|-----7-7-7--------7-7-7-----|
--7------------7------------|--8---------8--8---------8--|
----------------------------|----------------------------|


   E   S  S  E  E   E   S  S  E  E     E  S S E  E  E  S S E  E   
------------------------------------|----------------------------|
------------------------------------|----------------------------|
------------------------------------|----------------------------|
------10-10-10--9------10-10-10--9--|-----7-7-7--------7-7-7-----|
--10---------------10---------------|--5---------8--5---------8--|
------------------------------------|----------------------------|


  E  S S E  E  E  S S E  E     E  S S E  E  E  E  E  E   
----------------------------|---------------------------|
----------------------------|---------------------------|
----------------------------|---------------------------|
-----7-7-7--5-----7-7-7--5--|-----7-7-7-----------------|
--7------------7------------|--8---------8--7--5--4--7--|
----------------------------|---------------------------|


                       CHORUS
  Q    Q    Q    E  E     E  S S S S E  S S S S E  S S  
-----------------------|-------------------------------|
-----------------------|-------------------------------|
-----------------------|--7--7-7-7-7-7--7-7-7-7-7--7-7-|
--7---------7-------7--|--5--5-5-5-5-5--5-5-5-5-5--5-5-|
--5----7----5----7--5--|--5----------5----------5------|
-------5---------5-----|-------------------------------|


  E  S S S S E  S S S S E  S S    E  S S S S E  S S S S E  S S  
-------------------------------|-------------------------------|
-------------------------------|-------------------------------|
--7----------7----------7------|--5----------5----------5------|
--7--7-7-7-7-7--7-7-7-7-7--7-7-|--5--5-5-5-5-5--5-5-5-5-5--5-5-|
--5--5-5-5-5-5--5-5-5-5-5--5-5-|--3--3-3-3-3-3--3-3-3-3-3--3-3-|
-------------------------------|-------------------------------|


  E  S S S S E  S S S S E  S S    E  S S S S E  S S S S E  S S  
-------------------------------|-------------------------------|
-------------------------------|-------------------------------|
--7----------7----------7------|--7--7-7-7-7-7--7-7-7-7-7--7-7-|
--7--7-7-7-7-7--7-7-7-7-7--7-7-|--5--5-5-5-5-5--5-5-5-5-5--5-5-|
--5--5-5-5-5-5--5-5-5-5-5--5-5-|--5----------5----------5------|
-------------------------------|-------------------------------|


  E  S S S S E  S S S S E  S S    E  S S S S E  Q    Q     
-------------------------------|--------------------------|
-------------------------------|--------------------------|
-------------------------------|--------------------------|
--7--7-7-7-7-7--7-7-7-7-7--7-7-|--5--5-5-5-5-5-------5----|
--5--5-5-5-5-5--5-5-5-5-5--5-5-|--3--3-3-3-3-3--7----3----|
-------------------------------|----------------5---------|


  E  Q    E  Q    E  E     E  S S S S E  S S S S E  S S  
------------------------|-------------------------------|
------------------------|-------------------------------|
---------------------5--|--7--7-7-7-7-7--7-7-7-7-7--7-7-|
--7--7----5--7----7--3--|--5--5-5-5-5-5--5-5-5-5-5--5-5-|
--5--5----3--5----5-----|--5----------5----------5------|
------------------------|-------------------------------|


  E  S S S S E  S S S S E  S S    E  S S S S E  S S S S E  S S  
-------------------------------|-------------------------------|
-------------------------------|-------------------------------|
--7----------7----------7------|--5----------5----------5------|
--7--7-7-7-7-7--7-7-7-7-7--7-7-|--5--5-5-5-5-5--5-5-5-5-5--5-5-|
--5--5-5-5-5-5--5-5-5-5-5--5-5-|--3--3-3-3-3-3--3-3-3-3-3--3-3-|
-------------------------------|-------------------------------|


  E  S S S S E  S S S S E  S S    E  S S S S E  S S S S E  S S  
-------------------------------|-------------------------------|
-------------------------------|-------------------------------|
-------------------------------|-------------------------------|
--5----------5----------5------|--5----------5----------5------|
--5--5-5-5-5-5--5-5-5-5-5--5-5-|--5--5-5-5-5-5--5-5-5-5-5--5-5-|
--3--3-3-3-3-3--3-3-3-3-3--3-3-|--3--3-3-3-3-3--3-3-3-3-3--3-3-|


  E  S S S S E  S S S S E  S S    E  S S S S E  Q    Q     
-------------------------------|--------------------------|
-------------------------------|--------------------------|
-------------------------------|--------------------------|
--8----------8----------8------|--5--5-5-5-5-5-------5----|
--8--8-8-8-8-8--8-8-8-8-8--8-8-|--3--3-3-3-3-3--7----3----|
--6--6-6-6-6-6--6-6-6-6-6--6-6-|----------------5---------|


                       BRIDGE
                                                PM PM PM PM PM PM PM  
  E  Q    E  H           W                   E  E  E  E  E  E  E  E   
----------------------|-------------------|--------------------------|
----------------------|-------------------|--------------------------|
----------------------|-------------------|--------------------------|
--7--7----5--7--------|-------------------|--7--7--7--7--7--7--7--7--|
--5--5----3--5--------|-------------------|--5--5--5--5--5--5--5--5--|
----------------------|-------------------|--5--5--5--5--5--5--5--5--|


  PM PM PM PM PM               PM PM PM PM PM PM PM    PM PM PM PM PM          
  E  E  E  E  E  Q    E     E  E  E  E  E  E  E  E     E  E  E  E  E  Q    E   
-------------------------|--------------------------|-------------------------|
-------------------------|--------------------------|-------------------------|
-------------------------|--------------------------|-------------------------|
--7--7--7--7--7--8----8--|--7--7--7--7--7--7--7--7--|--7--7--7--7--7--8----8--|
--5--5--5--5--5--6----6--|--5--5--5--5--5--5--5--5--|--5--5--5--5--5--6----6--|
--5--5--5--5--5--6----6--|--5--5--5--5--5--5--5--5--|--5--5--5--5--5--6----6--|


     PM PM PM PM PM PM PM    PM PM PM PM PM                                
  E  E  E  E  E  E  E  E     E  E  E  E  E  Q    E     Q.     Q.     Q     
--------------------------|-------------------------|---------------------|
--------------------------|-------------------------|---------------------|
--------------------------|-------------------------|---------------------|
--7--7--7--7--7--7--7--7--|--7--7--7--7--7--8----8--|--4------4------4----|
--5--5--5--5--5--5--5--5--|--5--5--5--5--5--6----6--|--4------4------4----|
--5--5--5--5--5--5--5--5--|--5--5--5--5--5--6----6--|--2------2------2----|


                             PM PM PM PM PM PM PM    PM PM PM PM PM          
  E  Q.     E  E  Q       E  E  E  E  E  E  E  E     E  E  E  E  E  Q    E   
-----------------------|--------------------------|-------------------------|
-----------------------|--------------------------|-------------------------|
-----------------------|--------------------------|-------------------------|
--L--4------5--7--8----|--7--7--7--7--7--7--7--7--|--7--7--7--7--7--8----8--|
--L--4------5--7--8----|--5--5--5--5--5--5--5--5--|--5--5--5--5--5--6----6--|
--L--2------3--5--6----|--5--5--5--5--5--5--5--5--|--5--5--5--5--5--6----6--|


     PM PM PM PM PM PM PM    PM PM PM PM PM               PM PM PM PM PM PM PM  
  E  E  E  E  E  E  E  E     E  E  E  E  E  Q    E     E  E  E  E  E  E  E  E   
--------------------------|-------------------------|--------------------------|
--------------------------|-------------------------|--------------------------|
--------------------------|-------------------------|--------------------------|
--7--7--7--7--7--7--7--7--|--7--7--7--7--7--8----8--|--7--7--7--7--7--7--7--7--|
--5--5--5--5--5--5--5--5--|--5--5--5--5--5--6----6--|--5--5--5--5--5--5--5--5--|
--5--5--5--5--5--5--5--5--|--5--5--5--5--5--6----6--|--5--5--5--5--5--5--5--5--|


  PM PM PM PM PM                                                        
  E  E  E  E  E  Q    E     Q.     Q.     Q       E  Q.     E  E  Q     
-------------------------|---------------------|-----------------------|
-------------------------|---------------------|-----------------------|
-------------------------|---------------------|-----------------------|
--7--7--7--7--7--8----8--|--4------4------4----|--L--4------5--7--8----|
--5--5--5--5--5--6----6--|--4------4------4----|--L--4------5--7--8----|
--5--5--5--5--5--6----6--|--2------2------2----|--L--2------3--5--6----|


                                     PH                                 
  E  E  Q    Q    Q       H          H            E  E  Q    Q    Q     
-----------------------|-----------------------|-----------------------|
-----------------------|-----------------------|-----------------------|
-----------------------|-----------------------|-----------------------|
--7--7--7----6----6----|--L--------<>7~--------|--7--7--7----6----6----|
--7--7--7----4----4----|--L--------------------|--7--7--7----4----4----|
--5--5--5----4----4----|--L--------------------|--5--5--5----4----4----|


  S S S S S S S S S S S S Q        E  E  Q    Q    Q     
--------------------------------|-----------------------|
--------------------------------|-----------------------|
--------------------------------|-----------------------|
--------------------------------|--7--7--7----6----6----|
------------------5-5-----4~----|--7--7--7----4----4----|
--3-3-3-3-5-5-6-6-----6-6-------|--5--5--5----4----4----|


             PH                                 
  H          H            E  E  Q    Q    Q     
-----------------------|-----------------------|
-----------------------|-----------------------|
-----------------------|-----------------------|
--L--------<>7~--------|--7--7--7----6----6----|
--L--------------------|--7--7--7----4----4----|
--L--------------------|--5--5--5----4----4----|


                            PH                             
  S S S S S S S S S S S S   Q        E  E  Q    Q    Q     
----------------------------------|-----------------------|
----------------------------------|-----------------------|
----------------------------------|-----------------------|
----------------------------------|--7--7--7----6----6----|
------------------5-5-----<>4~----|--7--7--7----4----4----|
--3-3-3-3-5-5-6-6-----6-6---------|--5--5--5----4----4----|


             PH                                 
  H          H            E  E  Q    Q    Q     
-----------------------|-----------------------|
-----------------------|-----------------------|
-----------------------|-----------------------|
--L--------<>7~--------|--7--7--7----6----6----|
--L--------------------|--7--7--7----4----4----|
--L--------------------|--5--5--5----4----4----|


  S S S S S S S S S S S S Q        E  E  Q    Q    Q     
--------------------------------|-----------------------|
--------------------------------|-----------------------|
--------------------------------|-----------------------|
--------------------------------|--7--7--7----6----6----|
------------------5-5-----4~----|--7--7--7----4----4----|
--3-3-3-3-5-5-6-6-----6-6-------|--5--5--5----4----4----|


             PH                                                           
  H          H            E  E  Q    E  E  Q       E  E  E  Q    Q    E   
-----------------------|------------------------|------------------------|
-----------------------|------------------------|------------------------|
-----------------------|------------------------|------------------------|
--L--------<>7~--------|--7--7--7----6--7--6----|---------------------6--|
--L--------------------|--7--7--7----4--5--4----|--7--7--7--8----7----4--|
--L--------------------|--5--5--5----4--5--4----|--5--5--5--6----5-------|


VERSE 3
     PM PM PM                   PM PM PM    PM PM PM  
  E  E  E  E  E  E  E  E     E  E  E  E  E  E  E  E   
--------------------------|--------------------------|
--------------------------|--------------------------|
--------------------------|--------------------------|
--7-----------7-----------|--9-----------9-----------|
--5--5--5--5-----8--7--5--|--7--7--7--7--7--7--7--7--|
--------------------------|--------------------------|


      PM PM PM                       PM  PM  PM      PM  PM  PM  
   E  E  E  E   E  E   E  E      E   E   E   E   E   E   E   E   
-----------------------------|----------------------------------|
-----------------------------|----------------------------------|
-----------------------------|----------------------------------|
--10-----------10--7---------|--12--------------12--------------|
---8--8--8--8---------10--8--|--10--10--10--10--10--10--10--10--|
-----------------------------|----------------------------------|


     PM PM PM                   PM PM PM    PM PM PM  
  E  E  E  E  E  E  E  E     E  E  E  E  E  E  E  E   
--------------------------|--------------------------|
--------------------------|--------------------------|
--------------------------|--------------------------|
--7-----------7-----------|--9-----------9-----------|
--5--5--5--5-----8--7--5--|--7--7--7--7--7--7--7--7--|
--------------------------|--------------------------|


      PM PM PM                       PM  PM  PM      PM  PM  PM  
   E  E  E  E   E  E   E  E      E   E   E   E   E   E   E   E   
-----------------------------|----------------------------------|
-----------------------------|----------------------------------|
-----------------------------|----------------------------------|
--10-----------10--7---------|--12--------------12--------------|
---8--8--8--8---------10--8--|--10--10--10--10--10--10--10--10--|
-----------------------------|----------------------------------|


     PM PM PM                   PM PM PM    PM PM PM  
  E  E  E  E  E  E  E  E     E  E  E  E  E  E  E  E   
--------------------------|--------------------------|
--------------------------|--------------------------|
--------------------------|--------------------------|
--7-----------7-----------|--9-----------9-----------|
--5--5--5--5-----8--7--5--|--7--7--7--7--7--7--7--7--|
--------------------------|--------------------------|


      PM PM PM                       PM  PM  PM      PM  PM  PM  
   E  E  E  E   E  E   E  E      E   E   E   E   E   E   E   E   
-----------------------------|----------------------------------|
-----------------------------|----------------------------------|
-----------------------------|----------------------------------|
--10-----------10--7---------|--12--------------12--------------|
---8--8--8--8---------10--8--|--10--10--10--10--10--10--10--10--|
-----------------------------|----------------------------------|


     PM PM PM                   PM PM PM    PM PM PM                        
  E  E  E  E  E  E  E  E     E  E  E  E  E  E  E  E      H        H         
--------------------------|--------------------------|---------------------|
--------------------------|--------------------------|---------------------|
--------------------------|--------------------------|---------------------|
--7-----------7-----------|--9-----------9-----------|--10-----------------|
--5--5--5--5-----8--7--5--|--7--7--7--7--7--7--7--7--|---8--------7--------|
--------------------------|--------------------------|------------5--------|


  W                    H        H           W                 
-------------------|---------------------|-------------------|
-------------------|---------------------|-------------------|
-------------------|---------------------|-------------------|
--7----------------|--10-----------------|--7----------------|
--5----------------|---8--------7--------|--5----------------|
-------------------|------------5--------|-------------------|


BRIDGE # 2
-------------------|-------------------|-------------------|-------------------|
-------------------|-------------------|-------------------|-------------------|
-------------------|-------------------|-------------------|-------------------|
-------------------|-------------------|-------------------|-------------------|
-------------------|-------------------|-------------------|-------------------|
-------------------|-------------------|-------------------|-------------------|


-------------------|-------------------|-------------------|-------------------|
-------------------|-------------------|-------------------|-------------------|
-------------------|-------------------|-------------------|-------------------|
-------------------|-------------------|-------------------|-------------------|
-------------------|-------------------|-------------------|-------------------|
-------------------|-------------------|-------------------|-------------------|


  E  E  E  E  Q    E  E     E  E  E  E  Q    E  E     E  E  E  E  Q    E  E   
-------------------------|-------------------------|-------------------------|
-------------------------|-------------------------|-------------------------|
--7--7--7--7--7----7--7--|--9--9--9--9--9----9--9--|--7--7--7--7--7----7--7--|
--5--5--5--5--5----5--5--|--7--7--7--7--7----7--7--|--5--5--5--5--5----5--5--|
-------------------------|-------------------------|-------------------------|
-------------------------|-------------------------|-------------------------|


  E  E  E  E  Q    E  E     E  E  E  E  Q    E  E     E  E  E  E  Q    E  E   
-------------------------|-------------------------|-------------------------|
-------------------------|-------------------------|-------------------------|
--7--7--7--7--7----7--7--|--7--7--7--7--7----7--7--|--9--9--9--9--9----9--9--|
--5--5--5--5--5----5--5--|--5--5--5--5--5----5--5--|--7--7--7--7--7----7--7--|
-------------------------|-------------------------|-------------------------|
-------------------------|-------------------------|-------------------------|

                                              CHORUS / OUTRO
  H        H            Q    Q     Q    Q       E  S S S S E  S S S S E  S S  
--------------------|------------------------|-------------------------------|
--8-----------------|--10--------------------|-------------------------------|
--5--------9--------|---7---------------9----|--7--7-7-7-7-7--7-7-7-7-7--7-7-|
-----------7--------|--------7----10----7----|--5--5-5-5-5-5--5-5-5-5-5--5-5-|
--------------------|--------5-----8---------|--5----------5----------5------|
--------------------|------------------------|-------------------------------|


  E  S S S S E  S S S S E  S S    E  S S S S E  S S S S E  S S  
-------------------------------|-------------------------------|
-------------------------------|-------------------------------|
--7----------7----------7------|--5----------5----------5------|
--7--7-7-7-7-7--7-7-7-7-7--7-7-|--5--5-5-5-5-5--5-5-5-5-5--5-5-|
--5--5-5-5-5-5--5-5-5-5-5--5-5-|--3--3-3-3-3-3--3-3-3-3-3--3-3-|
-------------------------------|-------------------------------|


  E  S S S S E  S S S S E  S S    E  S S S S E  S S S S E  S S  
-------------------------------|-------------------------------|
-------------------------------|-------------------------------|
--7----------7----------7------|--7--7-7-7-7-7--7-7-7-7-7--7-7-|
--7--7-7-7-7-7--7-7-7-7-7--7-7-|--5--5-5-5-5-5--5-5-5-5-5--5-5-|
--5--5-5-5-5-5--5-5-5-5-5--5-5-|--5----------5----------5------|
-------------------------------|-------------------------------|


  E  S S S S E  S S S S E  S S    E  S S S S E  Q    Q     
-------------------------------|--------------------------|
-------------------------------|--------------------------|
-------------------------------|--------------------------|
--7--7-7-7-7-7--7-7-7-7-7--7-7-|--5--5-5-5-5-5-------5----|
--5--5-5-5-5-5--5-5-5-5-5--5-5-|--3--3-3-3-3-3--7----3----|
-------------------------------|----------------5---------|


                    PH                                     
  Q    Q     Q      Q        E  S S S S E  S S S S E  S S  
--------------------------|-------------------------------|
--------------------------|-------------------------------|
--------------------------|--7--7-7-7-7-7--7-7-7-7-7--7-7-|
--7----9----10----<>7~----|--5--5-5-5-5-5--5-5-5-5-5--5-5-|
--5----7-----8------------|--5----------5----------5------|
--------------------------|-------------------------------|


  E  S S S S E  S S S S E  S S    E  S S S S E  S S S S E  S S  
-------------------------------|-------------------------------|
-------------------------------|-------------------------------|
--7----------7----------7------|--5----------5----------5------|
--7--7-7-7-7-7--7-7-7-7-7--7-7-|--5--5-5-5-5-5--5-5-5-5-5--5-5-|
--5--5-5-5-5-5--5-5-5-5-5--5-5-|--3--3-3-3-3-3--3-3-3-3-3--3-3-|
-------------------------------|-------------------------------|


  E  S S S S E  S S S S E  S S    E  S S S S E  S S S S E  S S  
-------------------------------|-------------------------------|
-------------------------------|-------------------------------|
-------------------------------|-------------------------------|
--5----------5----------5------|--5----------5----------5------|
--5--5-5-5-5-5--5-5-5-5-5--5-5-|--5--5-5-5-5-5--5-5-5-5-5--5-5-|
--3--3-3-3-3-3--3-3-3-3-3--3-3-|--3--3-3-3-3-3--3-3-3-3-3--3-3-|


  E  S S S S E  S S S S E  S S    H        H           E  Q    E  H          
-------------------------------|--------------------|----------------------||
-------------------------------|--------------------|----------------------||
-------------------------------|--------------------|----------------------||
--8----------8----------8------|--5-----------------|--7--7----5--7--------||
--8--8-8-8-8-8--8-8-8-8-8--8-8-|--3--------7--------|--5--5----3--5--------||
--6--6-6-6-6-6--6-6-6-6-6--6-6-|-----------5--------|----------------------||




Duration Legend
---------------
W - whole
H - half
Q - quarter
E - 8th
S - 16th
T - 32nd
X - 64th
. - note dotted
|-n-|  - n-tuplets


Tablature Legend
----------------
L - tied note
x - dead note
g - grace note
(n) - ghost note
> - accentuded note
NH - natural harmonic
AH - artificial harmonic
TH - tapped harmonic
SH - semi harmonic
PH - pitch harmonic
h - hammer on
p - pull off
b - bend
br - bendRelease
pb - preBend
pbr - preBendRelease
brb - bendReleaseBend
\n/ - tremolo bar dip
\n - tremolo bar dive
-/n - tremolo bar Release up
/n\ - tremolo bar inverted dip
/n - tremolo bar return
-\n - tremolo bar Release down
S - shift slide
s - legato slide
/ -  slide into from below or out of upwards
\ -  slide into from above or out of downwards
~ - vibrato
W - wide vibrato
tr - trill
TP - tremolo picking
T - tapping
S - slap
P - pop
< - fade in
^ - brush up
v - brush down





Comments


Popular Finntroll tabs & chords
Galgasng Chords
Korpens Saga Chords
Svart Djup Chords
Den Sista Runans Dans Tabs
Fudosagan Tabs
Hemkomst Tabs
Slaget Vid BlodsäLv Tabs
Tomhet Och Tystnad Harska Tabs
Trolhammaren Tabs
Vattenda Tabs


Song lyrics



↑ Back to top | Tablatures and chords are parodies/interpretations of the original songs. You may use it for private study, scholarship, research or language learning purposes only
© 2014 AZChords.com Contact us | Privacy policy | DMCA | Add/correct tabs | Request tabs | Top 50 tabs