» » »

Finntroll, Slaget Vid BlodsäLv Tabs (ver.1)

Artists:  A B C D E F G H I J K L M N O P Q R S T U V W X Y Z # 

Slaget Vid BlodsäLv Tabs (ver.1)

Finntroll Tabs
 Rating:
4/5 (4 votes)
Slaget Vid BlodsäLv lessons Tabs too difficult? Try these video lessons and learn fast
1
                Riff A
d|--------------------------------------------------------|
A|--------------------------------------------------------|
F|--------------------------------------------------------|
C|--------------------------------------------------------|
G|-6--5--10-----------------------------------------------|
D|-4--3---8--6-4p3----------------------------------------|

Riff B
d|--------------------------------------------------------|
A|--------------------------------------------------------|
F|--------------------------------------------------------|
C|--------------------------------------------------------|
G|-------------------------1-4-1-4-1----------------------|
D|-1-4-1-4-1---1-4-1-4-1--------------1-4-1-4-1-----------|

d|--------------------------------------------------------|
A|--------------------------------------------------------|
F|--------------------------------------------------------|
C|--------------------------------------------------------|
G|-6--5--10-----------------------------------------------|
D|-4--3---8--6-4p3---1-4-1-4-1----------------------------|

Riff C
d|--------------------------------------------------------|
A|--------------------------------------------------------|
F|-----5------6------3-------5----------------------------|
C|-----5------6------3-------5----------------------------|
G|-3-3----4-4----1-1----3-3-------------------------------|
D|--------------------------------------------------------|
   . .    . .    . .    . .				(4x)

Repeat riff B 1x
Repeat riff C 4x

Riff D
d|--------------------------------------------------------|
A|--------------------------------------------------------|
F|-------------------5-5-5-5--5-5-5-5---------------------|
C|-9-9-9-9--9-9-9-9--3-3-3-3--3-3-3-3---------------------|
G|-7-7-7-7--7-7-7-7---------------------------------------|
D|--------------------------------------------------------|
								(2x)

Riff E
d|----------------------------------------------------------|
A|----------------------------------------------------------|
F|-------------------5-5-5-5--5-5-5-5-----------------------|
C|-6-6-6-6--6-6-6-6--3-3-3-3--3-3-3-3--9-9-9-9--10-10-10-10-|
G|-4-4-4-4--4-4-4-4--------------------7-7-7-7---8--8--8--8-|
D|----------------------------------------------------------|

Riff F (keyboard part), the chords:
d|--------------------------------------------------------|
A|--------------------------------------------------------|
F|--------------------------------------------------------|
C|--------------------------------------------------------|
G|-4---6-6--8-----------4---6-6--8------------------------|
D|-2---4-4--6-----------2---4-4--6------------------------|
   x                    x

Riff G
d|---------------------------------------------------------------------------
A|---------------------------------------------------------------------------
F|---------------------------------------------------------------------------
C|-6-------6--------5-------5--------3-------3--------5-------5--------------
G|-4-4-4-4-4-4-4-4--3-3-3-3-3-3-3-3--1-1-1-1-1-1-1-1--3-3-3-3-3-3-3-3--4-3-1-
D|--------------------------------------------------------------------------4

Riff H
d|-----------------------------------------------------------|
A|-----------------------------------------------------------|
F|-----------------------------------------------------------|
C|-6--------8--------9--------11---11------------------------|
G|-4-4-4-4--6-6-6-6--7-7-7-7---9-9--9------------------------|
D|-----------------------------------------------------------|

d|-----------------------------------------------------------|
A|-----------------------------------------------------------|
F|-----------------------------------------------------------|
C|-6--------8--------10--6--8--------------------------------|
G|-4-4-4-4--6-6-6-6---8--4--6--------------------------------|
D|-----------------------------------------------------------|
								(4x)

Riff I
d|--------------------------------------------------------------|
A|--------------------------------------------------------------|
F|--------------------------------------------------------------|
C|------5---------3--------6---------8----5----5-5-5-5--5-3-----|
G|-2----3----6----1--------4----3----6----3----3-3-3-3--3-1-6-5-|
D|-0---------4------------------1---------------------------4-3-|

repeat riff H 4x

Riff J
d|-----------------------------------------------------------|
A|-----------------------------------------------------------|
F|-----------------------------------------------------------|
C|-9-9-9-9--9-9-9-9--10------9-9-9-9--9-9-9-9--10------------|
G|-7-7-7-7--7-7-7-7---8------7-7-7-7--7-7-7-7---8------------|
D|-----------------------------------------------------------|

Riff K
d|-----------------------------------------------------------|
A|-----------------------------------------------------------|
F|-----------------------------------------------------------|
C|-6-6-6-6---10-10-10-10---9-9-9-9---10-10-10-10-------------|
G|-4-4-4-4----8--8--8--8---7-7-7-7----8--8--8--8-------------|
D|-----------------------------------------------------------|
								(2x)

Riff L
d|-----------------------------------------------------------|
A|-----------------------------------------------------------|
F|-----------------------------------------------------------|
C|-10--8--6--5-----------------------------------------------|
G|--8--6--4--3-----------------------------------------------|
D|-----------------------------------------------------------|
            
Submit corrections

comments powered by Disqus
↑ Back to top | Finntroll Tabs for Slaget Vid BlodsäLv. Lyrics for acoustic guitar and electric guitar. 1 Tablatures and chords are parodies/interpretations of the original songs. You may use it for private study, scholarship, research or language learning purposes only