>
 >
Hemkomst

Hemkomst Guitar Tabs

Finntroll - Hemkomst chords, tabs, tablatures, lyrics

Guitar lessons | Add/correct | Request | Top 50 tabs Artists:  A B C D E F G H I J K L M N O P Q R S T U V W X Y Z 0-9

Hemkomst Guitar Tabs – Finntroll

CD, Sheet music, Poster

Do you like Hemkomst? Share with your friends now
Tabs
FINNTROLL-Hemkomst
Trollhammaren (EP)-2004
Copyright Spinefarm Records
version 1.0 February 2005

All corrections are welcome.

 " - tremolo
 / - slide down
 \ - slide up
 . - palm mute
 ~ - long sound
 x - rest
 p - pull off
 h - hammer on
 tr - trill
 () - ghost note, sustained note
 * - artificial harmonics
 b - bend

 Tuning from low to high: D G C F A D

================================


 Intro
|---------------------------------------------------|
|---------------------------------------------------|
|---------------------------------------------------|
|---------------------------------------------7-5-4-|
|------7----------7x----------7---------7x--5-5-3-2-|
|-5555-5-----5555-5x-----5555-5----5555-5x--3-------|

Acoustic guitar just strum this chord with Intro
|---|
|---|
|---|Listen to the song
|-7-|to get the rhythm
|-7-|
|-5-|


 Riff 1
|-------------------------------------------------|
|-------------------------------------------------|
|-------------------------------------------------|
|-------------------------------------------------|
|----------3"----------3"----------3"----5"-3"-2"-|
|-5"-0"-5"----5"-0"-5"----5"-0"-5"----3"----------|



 Riff 2                                     x2
|---------------------------------------------|
|---------------------------------------------|
|---------------------------------------------|
|---------------------------------------------|
|-3--2-3-2-3-/7-6--2--3--2-3-2-3-/7-6---x6-x6-|
|-1--0-1-0-1-/5-4--0--1--0-1-0-1-/5-4---x4-x4-|




 Riff 3a
|-------------------------------------------------------------|
|-------------------------------------------------------------|
|-------------------------------------------------------------|
|-------------------------7-9------------------5-------9------|
|-------------------------5-7------------------3-3333--7-7777-|
|-5-555-0-5-555-0-5-555-0-5----5-555-0-5-555-0----------------|

|--------------------------------------------------------|
|--------------------------------------------------------|
|--------------------------------------------------------|
|-------------------------7-9----------------------------|
|-------------------------5-7------------------3-5-3-----|
|-5-555-0-5-555-0-5-555-0-5----5-555-0-5-555-0-------3-5-|


 Keyboard line with Riff 3a & Riff 3b
|-----------------------------------------------------------------|
|-----------------------8-7-5-------------------------------------|
|---999-7-9-999-7-9-999-------5----999-7-9-999--------------------|
|-7------------------------------7-------------10-101010-10-9-7-5-|
|-----------------------------------------------------------------|
|-----------------------------------------------------------------|

|----------------------------------------------------------|
|-----------------------8-7-5------------------------------|
|---999-7-9-999-7-9-999-------5----999-7-9-999-7-5-7-5-----|
|-7------------------------------7---------------------5-7-|
|----------------------------------------------------------|
|----------------------------------------------------------|



 Riff 4
|-------------------------------------------------------------------|
|-------------------------------------------------------------------|
|-------------------------------------------------------------------|
|-7---7---7---7---5---5---5x-5-3-2--7---7---7---7---5---5-----------|gtr 1
|-5-7-5-7-5-7-5-7-3-5-3-5-3x--------5-7-5-7-5-7-5-7-3-5-3-5-7-5-3-2-|
|---5---5---5---5---3---3-------------5---5---5---5---3---3---------|
|
|-------------------------------------------------------------------|
|-------------------------------------------------------------------|
|-------------------------------------------------------------------|
|-7---7---7---7---5---5---5x-5-3-2--7---7---7---7---5---5---9-9-9-9-|gtr 2
|-5-7-5-7-5-7-5-7-3-5-3-5-3x--------5-7-5-7-5-7-5-7-3-5-3-5-7-7-7-7-|
|---5---5---5---5---3---3-------------5---5---5---5---3---3---------|



 Fill 1
|---------------------------------------------------------------------|
|---------------------------------------------------------------------|
|----5-----4-----5-5-5-4----5-----4-----5-5-5-4----5----4-----5-5-5-4-|
|----2-----2-----2-2-2-2----2-----2-----2-2-2-2----2----2-----2-2-2-2-|gtr 1
|0000--0000-000-0-0-0-0-0000--0000--000-0-0-0-0-0000-0000-000-0-0-0-0-|
|---------------------------------------------------------------------|
|
|---------------------------------------------------------------------|
|---------------------------------------------------------------------|
|--------------------------2--------(2)------------2x-----------------|
|--------------------------2--------(2)------------2x-----------------|gtr 2
|-----------------------0000--------(0)---------0002x-----------------|
|---------------------------------------------------------------------|

|------------------------|
|------------------------|
|----5-----4-----5-5-5-4-|
|----2-----2-----2-2-2-2-|gtr 1
|-0000--0000-000-0-0-0-0-|
|------------------------|
|
|------------------------|
|------------------------|
|----2--------(2)--------|
|----2--------(2)--------|gtr 2
|-0000--------(0)--------|
|------------------------|


 Riff 5a                       Riff 6
|------------------------|    |------------------------|
|------------------------|    |------------------------|
|-----4------2---4-4-4-4-|    |-----5------4---5-5-5-5-|
|-----5------4---5-5-5-5-|    |-----7------5---7-7-7-7-|
|-----7------5---7-7-7-7-|    |-0-0----0-0---0-.-.-.-.-|
|-0-0----0-0---0-.-.-.-.-|    |------------------------|


 Riff 5b
|------------------------|
|------------------------|
|------------------------|
|-----5------4---5-5-5-5-|
|-----7------5---7-7-7-7-|
|-0-0----0-0---0-.-.-.-.-|


 Keyboard line with Riff 6                              x2
|---------------------------------------------------------|
|---------------------------------------------------------|
|---------------------------------------------------9-9~--|
|-7~--9-10-9-7-5-7~--7-5-------5-7~--9-10-9-7-5-7~--------|
|------------------------7~--7----------------------------|
|---------------------------------------------------------|


Keyboard line with Riff 5b & Riff 8
|---------------------------------------------------------------|
|-------------------------------------------------------12-12~--|
|-9~--11-12-11-9-7-9~--9-7-------7-9~--11-12-11-9-7-9~----------|
|--------------------------9~--9--------------------------------|
|---------------------------------------------------------------|
|---------------------------------------------------------------|

|-------------------------------------------------------------|
|-------------------------------------------------------------|
|-9~--11-12-11-9-7-9~--9-7-------7-9~--11-12-11-9-7-99-77-----|
|--------------------------9~--9--------------------------9~--|
|-------------------------------------------------------------|
|-------------------------------------------------------------|


 Riff 7 (guitar + keyboard)
|-----------------------------------------------------------------|
|-----------------------------------------------------------------|
|-5---5---4---4---5---5---5---7---5---5---4---4---5---5-7-9-7-5-4-|
|---7---7---7---7---7---7---7---7---7---7---7---7---7-------------|
|-----------------------------------------------------------------|
|-----------------------------------------------------------------|
|
|-----------------------------------------------------------------|
|-----------------------------------------------------------------|
|-----------------------------------------------------------------|
|-----------------------------------------------------------------|
|-7-7-7-7-5-5-5-5-7-7-7-7-7-7-7-7-7-7-7-7-5-5-5-5-7-7-7-7-7-7-7-7-|
|-5-5-5-5-3-3-3-3-5-5-5-5-5-5-5-5-5-5-5-5-3-3-3-3-5-5-5-5-5-5-5-5-|
  . . . . . . . . . . . . . . . . . . . . . . . . . . . . . . . .
|-----------------------------------------------------------------|
|-----------------------------------------------------------------|
|-5---5---4---4---5---5---5---7---5---5---4---4---5-4-------4-5-7-|
|---7---7---7---7---7---7---7---7---7---7---7---7-----7-5-7-------|
|-----------------------------------------------------------------|
|-----------------------------------------------------------------|
|
|-----------------------------------------------------------------|
|-----------------------------------------------------------------|
|-----------------------------------------------------------------|
|-----------------------------------------------------------------|
|-7-7-7-7-5-5-5-5-7-7-7-7-7-7-7-7-7-7-7-7-5-5-5-5-7-7-7-7-7-7-7-7-|
|-5-5-5-5-3-3-3-3-5-5-5-5-5-5-5-5-5-5-5-5-3-3-3-3-5-5-5-5-5-5-5-5-|
  . . . . . . . . . . . . . . . . . . . . . . . .


 Riff 8
|---------------------|
|---------------------|
|---------------------|
|-9-99-7-77-9-99-9-99-|
|-7-77-5-55-7-77-7-77-|
|-7-77-5-55-7-77-7-77-|


 Riff 3a
|--------------------------------------------------------------|
|--------------------------------------------------------------|
|--------------------------------------------------------------|
|-------------------------7-9------------------5--------9------|
|-------------------------5-7------------------3-3333---7-7777-|
|-5-555-0-5-555-0-5-555-0-5----5-555-0-5-555-0-----------------|

|--------------------------------------------------------------|
|--------------------------------------------------------------|
|--------------------------------------------------------------|
|-------------------------7-9------------------5------7-9------|
|-------------------------5-7------------------3-3333-5-7-7777-|
|-5-555-0-5-555-0-5-555-0-5----5-555-0-5-555-0-----------------|


 End with this chord
|---|
|---|
|---|
|---|
|-7-|
|-5-|





Comments


Popular Finntroll tabs & chords
Den Sista Runans Dans 1 Chords
Galgasng Chords
Korpens Saga Chords
Eliytres Tabs
Ett Norrskensdad Tabs
Fiskarens Fiende Tabs
Solsagan Tabs
Tomhet Och Tystnad Harska Tabs
Trolhammaren Tabs
Galgasng Ukulele


Song lyrics



↑ Back to top | Tablatures and chords are parodies/interpretations of the original songs. You may use it for private study, scholarship, research or language learning purposes only
© 2014 AZChords.com Contact us | Privacy policy | DMCA | Add/correct tabs | Request tabs | Top 50 tabs