>
 >
Fodosagan

Fodosagan Guitar Tabs

Finntroll - Fodosagan chords, tabs, tablatures, lyrics

Guitar lessons | Add/correct | Request | Top 50 tabs Artists:  A B C D E F G H I J K L M N O P Q R S T U V W X Y Z 0-9

Fodosagan Guitar Tabs – Finntroll

CD, Sheet music, Poster

Do you like Fodosagan? Share with your friends now
Tabs
Band: Finntroll

Tuning: Standard E-Tuning (E-A-D-G-H-e)

h - Hammer on
p - Pull off
. - Palm Mute
() - Harmonic note

Gtr 1 - Electric guitar
Gtr 2 - Acoustic Steel-guitar
Gtr 3 - Electric guitar

Listen to song for exact rythm.

00:00
  -
Gtr 1
  -
|---|------------------------------|
|---|------------------------------|
|---|------------------------------|
|---|------------------------------|
|-2-|-2----------------------------| Hold note
|-0-|-0----------------------------|
  . 

Gtr 2
  -
|---|-----------------------------------------------------------------|
|---|-----------------------------------------------------------------|
|---|-----------------------------------------------------------------|
|---|-----------------------------------------------------------------|
|---|-----------------------------------------------------------------|
|---|-0--0-0-3-0-3453-0---0-0-0-3-0-345--0--0-0-3-0-3453-0--0-0-3-0-1-|

|----------------------------------------------------------------|
|----------------------------------------------------------------|
|----------------------------------------------------------------|
|----------------------------------------------------------------|       
|----------------------------------------------------------------|
|-0--0-0-3-0-3453-0----0-0-3-0-345--0--0-0-3-0-3453-0--0-0-3-0-1-|
  (Note: I'm not wery sure about the last note, but it fits. Figure it out by your self if needed.)

Gtr 1
  -
|-------------------------------------------------------------------|
|-------------------------------------------------------------------|
|-------------------------------------------------------------------|
|-------------------------------------------------------------------|
|-------------------------------------------------------------------| 
|-----------------------------------------------------------3-0-(1)-|

00:15
  -
Gtr 1 & 3
  -
|----------------------------------|------------------------------|
|----------------------------------|------------------------------|
|----------------------------------|------------------------------|
|----------------------------------|------------------------------| x4 
|----------------------------------|------------------------------|
|-0--0-0-3-0-3453-0----0-0-3-0-345-|-0--0-0-3-0-3453-0--0-0-3-0-1-|

00:43
  -
|-------|
|-------|
|-------|
|-------|
|-5---3-|
|-3-0-1-|
  . .
00:44
  -
|----------------------------------|--------------------------------|
|----------------------------------|--------------------------------|
|----------------------------------|--------------------------------|
|----------------------------------|--------------------------------| x2 
|----------------------------------|--------------------------5---3-|
|-0-0-0-0-3-0-3453-0-0-0-0-3-0-345-|-0-0-0-0-3-0-3453-0-0-0-0-3-0-1-|
  .   .     .      .   .     .       .   .     .      .   .   . .
00:58
  -
|----------------------------------|------------------------------|
|----------------------------------|------------------------------|
|----------------------------------|------------------------------|
|----------------------------------|------------------------------| x4 
|----------------------------------|------------------------------|
|-0--0-0-3-0-3453-0----0-0-3-0-345-|-0--0-0-3-0-3453-0--0-0-3-0-1-|

01:26
  -
|----------------------------------|--------------------------------|
|----------------------------------|--------------------------------|
|----------------------------------|--------------------------------|
|----------------------------------|--------------------------------| x2 
|----------------------------------|--------------------------5---3-|
|-0-0-0-0-3-0-3453-0-0-0-0-3-0-345-|-0-0-0-0-3-0-3453-0-0-0-0-3-0-1-|
  .   .     .      .   .     .       .   .     .      .   .   . .
01:41
  -
|---------------------------------|---------------------------------|
|---------------------------------|---------------------------------|
|---------------------------------|---------------------------------|
|---------------------------------|---------------------------------| x4
|-9---------------5---------------|-7---------------4---------------|
|-7---------------3---------------|-5---------------2---------------|

02:09
  -
|----------------|----------------|---------------|-----------------|
|----------------|----------------|---------------|-----------------|
|----------------|----------------|---------------|-----------------|
|----------------|----------------|---------------|-----------------|
|-2-2------------|-2-2------------|-2-2-----------|-2-2-------------|
|-0-0------------|-0-0------------|-0-0-----------|-0-0-------------|
  .                .                .               .
02:14
  -
|------------|
|------------|
|------------|
|------------|
|-9-----5--4-|
|-7-----3--2-|

02:15
  -
|-------------------------------|-----------------------------------|
|-------------------------------|-----------------------------------|
|-------------------------------|-----------------------------------|
|-------------------------------|-----------------------------------| x2
|-------------3-5-7-3-5-7-5-3---|-------------3-5-7-3-5-7-----------|
|-3-5-7-3-5-7-----------------7-|-3-5-7-3-5-7-----------------------|

|-------------------------------|-----------------------------------|
|-------------------------------|-----------------------------------|
|-------------------------------|-----------------------------------|
|-------------------------------|-----------------------------------| x2
|-------------5-7-9-5-7-9-7-5---|-------------5-7-9-5-7-9-----------|
|-5-7-9-5-7-9-----------------9-|-5-7-9-5-7-9-----------------------|

|------------------------------------|-----------------------------------|
|------------------------------------|-----------------------------------|
|------------------------------------|-----------------------------------|
|------------------------------------|-----------------------------------| x2
|---------------7-9-10-7-9-10-9-7----|---------------7-9-10-7-9-10-------|
|-7-9-10-7-9-10-------------------10-|-7-9-10-7-9-10---------------------|

02:36
  -
Gtr 1
  -
|-------------------------------------------------------------------|
|-------------------------------------------------------------------|
|-------------------------------------------------------------------|
|-------------------------------------------------------------------|
|-2-----------------------------------------------------------------|
|-0-----------------------------------------------------------------|

Gtr 2
  -
|-0---0-0--0-0-0-0-0-0-0--0-0-|-3---3-3--3-3-7---7-7--7-7-|
|-0---0-0--0-0-0-0-0-0-0--0-0-|-3---3-3--3-3-7---7-7--7-7-|
|-1---1-1--1-1-1-1-1-1-1--1-1-|-4---4-4--4-4-8---8-8--8-8-|
|-2---2-2--2-2-2-2-2-2-2--2-2-|-5---5-5--5-5-9---9-9--9-9-| x2
|-2---2-2--2-2-2-2-2-2-2--2-2-|-5---5-5--5-5-9---9-9--9-9-|
|-0---0-0--0-0-0-0-0-0-0--0-0-|-3---3-3--3-3-7---7-7--7-7-|

02:51
  -
Gtr 1
  -
|--------------------------------------|
|--------------------------------------|
|-----9---7-7h9------------------------|
|---------------9-9h10---9h10p9-9------| x8
|-7-------------------------------10-9-|
|--------------------------------------|
   (Stop at the last 9 the last time)
  -
|-0---0-0--0-0-0-0-0-0-0--0-0-|-3---3-3--3-3-7---7-7--7-7-|
|-0---0-0--0-0-0-0-0-0-0--0-0-|-3---3-3--3-3-7---7-7--7-7-|
|-1---1-1--1-1-1-1-1-1-1--1-1-|-4---4-4--4-4-8---8-8--8-8-|
|-2---2-2--2-2-2-2-2-2-2--2-2-|-5---5-5--5-5-9---9-9--9-9-| x8
|-2---2-2--2-2-2-2-2-2-2--2-2-|-5---5-5--5-5-9---9-9--9-9-|
|-0---0-0--0-0-0-0-0-0-0--0-0-|-3---3-3--3-3-7---7-7--7-7-|

Gtr 1 & 3
  -
03:47
  -
|-----|
|-----|
|-----|
|-----|
|-5-4-|
|-3-2-|

|-----------------------------------------------------------------|
|-----------------------------------------------------------------|
|-----------------------------------------------------------------|
|-----------------------------------------------------------------| x4
|-2-2-2-2-2-2-2-2-222-2-2-2-2-2-2-222-2-2-2-2-2-2-222-2-2-2-2-5-4-|
|-0-0-0-0-0-0-0-0-000-0-0-0-0-0-0-000-0-0-0-0-0-0-000-0-0-0-0-3-2-|
    . . . . . . . ... . . . . . . ... . . . . . . ... . . . .

04:15
  -
|----------------------------------|------------------------------|
|----------------------------------|------------------------------|
|----------------------------------|------------------------------|
|----------------------------------|------------------------------| x4 
|----------------------------------|------------------------------|
|-0--0-0-3-0-3453-0----0-0-3-0-345-|-0--0-0-3-0-3453-0--0-0-3-0-1-|

04:43
  -
Gtr 1
  -
|----------------------------------|------------------------------|
|----------------------------------|------------------------------|
|----------------------------------|------------------------------|
|----------------------------------|------------------------------| x2 
|----------------------------------|------------------------5---3-|
|-0--0-0-3-0-3453-0----0-0-3-0-345-|-0--0-0-3-0-3453-0--0-0-3-0-1-|
  .  . . . . .... .    . . . . ...   .  . . . . .... .  . . . . 
Gtr 3
  -
|----------------------------------|------------------------------|
|----------------------------------|------------------------------|
|----------------------------------|------------------------------|
|----------------------------------|------------------------------| x2
|----------------------------------|------------------------5---3-|
|-0------3-0------0--------3-0-345-|-0------3-0------0------3-0-1-|
                                                            . .
The last time, instead of Playing: A|-5---3-|
                                   E|-3-0-1-|
                                      . .
play:

|------------------------|
|------------------------|
|------------------------|
|------------------------|
|-5---3--5---3--5---3--2-|
|-3-0-1--3-0-1--3-0-1--0-|
  . .    . .    . .





Comments


Popular Finntroll tabs & chords
Asfagelns Dod Bass Tabs
Svart Djup Chords
Fudosagan Tabs
Hemkomst Tabs
Slaget Vid BlodsäLv Tabs
Solsagan Tabs
Trollhammaren Tabs
Vattenda Tabs
Den Sista Runans Dans Ukulele
Korpens Saga Ukulele


Song lyrics



↑ Back to top | Tablatures and chords are parodies/interpretations of the original songs. You may use it for private study, scholarship, research or language learning purposes only
© 2014 AZChords.com Contact us | Privacy policy | DMCA | Add/correct tabs | Request tabs | Top 50 tabs