>
 >
Fiskarens Fiende

Fiskarens Fiende Guitar Tabs

Finntroll - Fiskarens Fiende chords, tabs, tablatures, lyrics

Guitar lessons | Add/correct | Request | Top 50 tabs Artists:  A B C D E F G H I J K L M N O P Q R S T U V W X Y Z 0-9

Fiskarens Fiende Guitar Tabs – Finntroll

CD, Sheet music, Poster

Do you like Fiskarens Fiende? Share with your friends now
Tabs
Band: Finntroll
Tab Date: 27-04-2004


Standard E Tuning

. = palm mute
h = hammer
p = pick
~ = pull string up
" = open note
/ = forward slide
\ = backward slide

riff A
|-------------------------------------------------------|
|-------------------------------------------------------|
|-------------------------------------------------------|
|-2-------2---------------------------------------------|
|-2-----3p2----5/8--------------------------------------|
|-0-----1-0----3/6--------------------------------------|

riff B
|-------------------------------------------------------|
|-------------------------------------------------------|
|-------------------------------------------------------|
|-2"--2-22-2-222-2-222-2-222----------------------------|
|-2---2-22-2-222-2-222-2-222----------------------------|
|-0---0-00-0-000-0-000-0-000----------------------------|
     p.m....................

riff C
|-------------------------------------------------------|
|-------------------------------------------------------|
|-------------------------------------------------------|
|-2-222-2-222-2-222-------------------------------------|
|-2-222-2-222-2-222--5/8--------------------------------|
|-0-000-0-000-0-000--3/6--------------------------------|
 p.m...............

riff D (0:14)
|----------------------3~-6-5p3h------------------------|
|-5----5p3h5----3h5--------------6----------------------|
|---4--------4------4-----------------------------------|
|-------------------------------------------------------|
|-------------------------------------------------------|
|-------------------------------------------------------|

|----------------------3-6-5----------------------------|
|-5----5p3h5----3h5----------6--------------------------|
|---4--------4------4-----------------------------------|
|-------------------------------------------------------|
|-------------------------------------------------------|
|-------------------------------------------------------|

repeat riff D 1x

riff I (under riff D) (0:14)
|-------------------------------------------------------|
|-------------------------------------------------------|
|-4------4------4---------4---5-------------------------|
|-2-444--2-444--2-444--0h-2-h-3-h-7---------------------|
|---222----222----222-------------5---------------------|
|-------------------------------------------------------|
    ...    ...    ...                                (2x)

riff E (0:29)
|-------------------------------------------------------|
|-------------------------------------------------------|
|-4-----4-----4-----4-----------------------------------|
|-2-44--2-44--2-44--2-----------------------------------|
|---22----22----22-----5-4-2----------------------------|
|----------------------------5--------------------------|
    ..    ..    ..     . . . .                        (1x)

riff F (0:33)
|-------------------------------------------------------|
|-------------------------------------------------------|
|-4-----4------4---5------4-----4------4---5------------|
|-2--4--2---0h-2-h-3------2--4--2---0h-2-h-3------------|
|----2-----------------------2--------------------------|
|-------------------------------------------------------|
                                                (1x)
repeat riff E 1x (0:37)
repeat riff F 1x (0:41)
repeat riff E 1x (0:45)
repeat riff F 1x (0:48)
repeat riff E 1x (0:52)
repeat riff D+I 2x (0:55)

riff G (1:10)
|-----------------------------------------------------------|
|-----------------------------------------------------------|
|-----------------------------------------------------------|
|-----------------------------------------------------------|
|-4------4------4------4-6--5------5------5------5--777-555-|
|-2-222--2-222--2-222--2-4--3-333--3-333--3-333--3--555-333-|
    ...    ...    ...         ...    ...    ...     ... ...

|-----------------------------------------------------------|
|-----------------------------------------------------------|
|-----------------------------------------------------------|
|-----------------------------------------------------------|
|-4------4------4------4-6--5------5------5------5--8-7-5---|
|-2-222--2-222--2-222--2-4--3-333--3-333--3-333--3--6-5-3---|
    ...    ...    ...         ...    ...    ...

riff H (1:25)
|----------5h7--8-7-5-7--7---5h7--5---8p7---------------|
|-3/5-7-8------------------8--------8-------------------|
|-------------------------------------------------------|
|-------------------------------------------------------|
|-------------------------------------------------------|
|-------------------------------------------------------|

|----------5h7--8-7-5-7--5------------------------------|
|-3/5-7-8------------------8-7p5~~~---8-----------------|
|-------------------------------------------------------|
|-------------------------------------------------------|
|-------------------------------------------------------|
|-------------------------------------------------------|

repeat riff D+I 2x (1:41)
repeat riff E 1x (1:49)
repeat riff F 1x
repeat riff E 1x (1:55)
repeat riff F 1x
repeat riff E 1x (2:03)
repeat riff F 1x
repeat riff E 1x (2:10)

[la la la la lai] (2:14)

riff J (2:30)
|-----------------------------------------------------------|
|-----------------------------------------------------------|
|-----------------------------------------------------------|
|-----------------------------------------------------------|
|-4------4------4------4-6--5------5------5------5--777-555-|
|-2-222--2-222--2-222--2-4--3-333--3-333--3-333--3--555-333-|
    ...    ...    ...         ...    ...    ...     ... ...

|-----------------------------------------------------------|
|-----------------------------------------------------------|
|-----------------------------------------------------------|
|-----------------------------------------------------------|
|-4------4------4------4-6--5------5------5------5--777-555-|
|-2-222--2-222--2-222--2-4--3-333--3-333--3-333--3--555-333-|
    ...    ...    ...         ...    ...    ...     ... ...

|-----------------------------------------------------------|
|-----------------------------------------------------------|
|-----------------------------------------------------------|
|-----------------------------------------------------------|
|-4------4------4------4-6--5------5------5------5--777-555-|
|-2-222--2-222--2-222--2-4--3-333--3-333--3-333--3--555-333-|
    ...    ...    ...         ...    ...    ...     ... ...

|-----------------------------------------------------------|
|-----------------------------------------------------------|
|-----------------------------------------------------------|
|-----------------------------------------------------------|
|-4------4------4------4-6--5------5------5------5--8-7-5---|
|-2-222--2-222--2-222--2-4--3-333--3-333--3-333--3--6-5-3---|
    ...    ...    ...         ...    ...    ...

repeat riff H 4x (2:58)

riff K (3:27)
|-2-5-3-2------------------2-5-3-2----------------------|
|---------5-----3h5p3--------------5-----3h5p3----------|
|-----------4~--------4--------------4~--------4--------|
|-------------------------------------------------------|
|-------------------------------------------------------|
|-------------------------------------------------------|





Comments


Popular Finntroll tabs & chords
En Maktig Har Bass Tabs
Den Sista Runans Dans Chords
Galgasng Chords
Eliytres Tabs
Fudosagan Tabs
Rivfader Tabs
Trolhammaren Tabs
Trollhammaren Tabs
Galgasng Ukulele
Korpens Saga Ukulele


Song lyrics



↑ Back to top | Tablatures and chords are parodies/interpretations of the original songs. You may use it for private study, scholarship, research or language learning purposes only
© 2014 AZChords.com Contact us | Privacy policy | DMCA | Add/correct tabs | Request tabs | Top 50 tabs