>
 >
Ett Norrskensdad

Ett Norrskensdad Guitar Tabs

Finntroll - Ett Norrskensdad chords, tabs, tablatures, lyrics

Guitar lessons | Add/correct | Request | Top 50 tabs Artists:  A B C D E F G H I J K L M N O P Q R S T U V W X Y Z 0-9

Ett Norrskensdad Guitar Tabs – Finntroll

CD, Sheet music, Poster

Do you like Ett Norrskensdad? Share with your friends now
Tabs
Band: Finntroll
Tuning: DGCFAD

Legend:

W - Whole
H - Half
Q - Quarter
E - 8th
S - 16th
. - Palm Mute
* - Dotted Note
/ - Slide Up To
\ - Slide Down To


Q = 190 bpm.


(00:00 - 00:10)


Gtr. 1 (Arranged for guitar)

     Q*  E   Q     E   E        E   E    Q   Q   E   E

|---/15--14--10----11--10---|---11--10------------------------|
|---------------------------|------------13--13--12--13-------|
|---------------------------|---------------------------------|
|---------------------------|---------------------------------|
|---------------------------|---------------------------------|
|---------------------------|---------------------------------|

    Q   E   E   Q   E   E        Q   E   E   E   E   E   E

|---10--10-------------------|-------------------10--11--13---|
|-----------12----------12---|---13--13--12--13---------------|
|---------------12--12-------|--------------------------------|
|----------------------------|--------------------------------|
|----------------------------|--------------------------------|
|----------------------------|--------------------------------|

     Q*  E   Q     E   E        E   E    Q   Q   E   E

|---/15--14--10----11--10---|---11--10------------------------|
|---------------------------|------------13--13--12--13-------|
|---------------------------|---------------------------------|
|---------------------------|---------------------------------|
|---------------------------|---------------------------------|
|---------------------------|---------------------------------|

    Q   E   E   Q   E   E        Q   E   E   H

|---10--10-------------------|--------------------------------|
|-----------12----------12---|---13--13--12--13---------------|
|---------------12--12-------|--------------------------------|
|----------------------------|--------------------------------|
|----------------------------|--------------------------------|
|----------------------------|--------------------------------|


(00:11 - 00:20)


Gtr. 1                                                              

     Q*  E   Q     E   E        E   E    Q   Q   E   E

|---/15--14--10----11--10---|---11--10------------------------|
|---------------------------|------------13--13--12--13-------|
|---------------------------|---------------------------------|
|---------------------------|---------------------------------|
|---------------------------|---------------------------------|
|---------------------------|---------------------------------|

    Q   E   E   Q   E   E        Q   E   E   E   E   E   E

|---10--10-------------------|-------------------10--11--13---|
|-----------12----------12---|---13--13--12--13---------------|
|---------------12--12-------|--------------------------------|
|----------------------------|--------------------------------|
|----------------------------|--------------------------------|
|----------------------------|--------------------------------|

     Q*  E   Q     E   E        E   E    Q   Q   E   E

|---/15--14--10----11--10---|---11--10------------------------|
|---------------------------|------------13--13--12--13-------|
|---------------------------|---------------------------------|
|---------------------------|---------------------------------|
|---------------------------|---------------------------------|
|---------------------------|---------------------------------|

    Q   E   E   Q   E   E        Q   E   E   H

|---10--10-------------------|--------------------------------|
|-----------12----------12---|---13--13--12--13---------------|
|---------------12--12-------|--------------------------------|
|----------------------------|--------------------------------|
|----------------------------|--------------------------------|
|----------------------------|--------------------------------|


Gtr. 2

    Q   E  E       Q   E  E          Q   E  E       Q   E  E

|--------------------------------|--------------------------------|
|--------------------------------|--------------------------------|
|--------------------------------|---5---5--5-------5---5--5------|
|---5---5--5-------5---5--5------|---5---5--5-------5---5--5------|
|---5---5--5-------5---5--5------|---3---3--3-------3---3--3------|
|---3---3--3-------3---3--3------|--------------------------------|

    Q   E  E       Q   E  E          Q   E  E       Q   E  E

|--------------------------------|--------------------------------|
|--------------------------------|--------------------------------|
|--------------------------------|---5---5--5-------5---5--5------|
|---5---5--5-------5---5--5------|---5---5--5-------5---5--5------|
|---5---5--5-------5---5--5------|---3---3--3-------3---3--3------|
|---3---3--3-------3---3--3------|--------------------------------|
    
    Q   E  E       Q   E  E          Q   E  E       Q   E  E

|--------------------------------|--------------------------------|
|--------------------------------|--------------------------------|
|--------------------------------|---5---5--5-------5---5--5------|
|---5---5--5-------5---5--5------|---5---5--5-------5---5--5------|
|---5---5--5-------5---5--5------|---3---3--3-------3---3--3------|
|---3---3--3-------3---3--3------|--------------------------------|

    Q   E  E      Q       E   E      Q             E  E       H

|--------------------------------|--------------------------------|
|--------------------------------|--------------------------------|
|--------------------------------|--------------------------------|
|---5---5--5-------5-------------|---5-------------5--4-------5---|
|---5---5--5-------5------5--5---|---3-------------3--2-------3---|
|---3---3--3-------3------3--3---|--------------------------------|
                          .  .                     .  .

(00:21 - 00:42)


Gtr. 1 and 2  (x4)

    E  E  E   E   Q          Q       Q           Q            H

|--------------------------------|--------------------------------|
|--------------------------------|--------------------------------|
|--------------------------------|--------------------------------|
|-------------4--/5----------5---|---------------4------------5---|
|---5--5--5---2--/3----------3---|---5-----------2------------3---|
|---3--3--3----------------------|---3----------------------------|
    .  .  .                          .           .
    E  E  E   E   Q       E  E       E  E  Q  H

|--------------------------------|--------------------------------|
|--------------------------------|--------------------------------|
|--------------------------------|--------------------------------|
|-------------4--/5-------5--7---|---8--7--5--5-------------------|
|---5--5--5---2--/3-------3--5---|---6--5--3--3-------------------|
|---3--3--3----------------------|--------------------------------|
    .  .  .                                .


Gtr. 1 and 2

    W                                W

|--------------------------------|--------------------------------|
|--------------------------------|--------------------------------|
|---5----------------------------|--------------------------------|
|---5----------------------------|---6----------------------------|
|---3----------------------------|---6----------------------------|
|--------------------------------|---4----------------------------|


(00:43 - 00:52)


Gtr. 1

     Q*  E   Q     E   E        E   E    Q   Q   E   E

|---/15--14--10----11--10---|---11--10------------------------|
|---------------------------|------------13--13--12--13-------|
|---------------------------|---------------------------------|
|---------------------------|---------------------------------|
|---------------------------|---------------------------------|
|---------------------------|---------------------------------|

    Q   E   E   Q   E   E        Q   E   E   E   E   E   E

|---10--10-------------------|-------------------10--11--13---|
|-----------12----------12---|---13--13--12--13---------------|
|---------------12--12-------|--------------------------------|
|----------------------------|--------------------------------|
|----------------------------|--------------------------------|
|----------------------------|--------------------------------|

     Q*  E   Q     E   E        E   E    Q   Q   E   E

|---/15--14--10----11--10---|---11--10------------------------|
|---------------------------|------------13--13--12--13-------|
|---------------------------|---------------------------------|
|---------------------------|---------------------------------|
|---------------------------|---------------------------------|
|---------------------------|---------------------------------|

    Q   E   E   Q   E   E        Q   E   E   H

|---10--10-------------------|--------------------------------|
|-----------12----------12---|---13--13--12--13---------------|
|---------------12--12-------|--------------------------------|
|----------------------------|--------------------------------|
|----------------------------|--------------------------------|
|----------------------------|--------------------------------|


Gtr. 2

    Q   E  E       Q   E  E          Q   E  E       Q   E  E

|--------------------------------|--------------------------------|
|--------------------------------|--------------------------------|
|--------------------------------|---5---5--5-------5---5--5------|
|---5---5--5-------5---5--5------|---5---5--5-------5---5--5------|
|---5---5--5-------5---5--5------|---3---3--3-------3---3--3------|
|---3---3--3-------3---3--3------|--------------------------------|

    Q   E  E       Q   E  E          Q   E  E       Q   E  E

|--------------------------------|--------------------------------|
|--------------------------------|--------------------------------|
|--------------------------------|---5---5--5-------5---5--5------|
|---5---5--5-------5---5--5------|---5---5--5-------5---5--5------|
|---5---5--5-------5---5--5------|---3---3--3-------3---3--3------|
|---3---3--3-------3---3--3------|--------------------------------|
    
    Q   E  E       Q   E  E          Q   E  E       Q   E  E

|--------------------------------|--------------------------------|
|--------------------------------|--------------------------------|
|--------------------------------|---5---5--5-------5---5--5------|
|---5---5--5-------5---5--5------|---5---5--5-------5---5--5------|
|---5---5--5-------5---5--5------|---3---3--3-------3---3--3------|
|---3---3--3-------3---3--3------|--------------------------------|

    Q   E  E      Q       E   E      Q             E  E       H

|--------------------------------|--------------------------------|
|--------------------------------|--------------------------------|
|--------------------------------|--------------------------------|
|---5---5--5-------5-------------|---5-------------5--4-------5---|
|---5---5--5-------5------5--5---|---3-------------3--2-------3---|
|---3---3--3-------3------3--3---|--------------------------------|
                          .  .                     .  .

(00:53 - 01:13)


Gtr. 1 and 2  (x4)

    E  E  E   E   Q          Q       Q           Q            H

|--------------------------------|--------------------------------|
|--------------------------------|--------------------------------|
|--------------------------------|--------------------------------|
|-------------4--/5----------5---|---------------4------------5---|
|---5--5--5---2--/3----------3---|---5-----------2------------3---|
|---3--3--3----------------------|---3----------------------------|
    .  .  .                          .           .
    E  E  E   E   Q       E  E       E  E  Q  H

|--------------------------------|--------------------------------|
|--------------------------------|--------------------------------|
|--------------------------------|--------------------------------|
|-------------4--/5-------5--7---|---8--7--5--5-------------------|
|---5--5--5---2--/3-------3--5---|---6--5--3--3-------------------|
|---3--3--3----------------------|--------------------------------|
    .  .  .                                .


(01:14 - 01:25)


Gtr. 1 and 2  (x2)

    E  E  E  E   Q       Q           Q           Q            H

|--------------------------------|--------------------------------|
|--------------------------------|--------------------------------|
|--------------------------------|--------------------------------|
|--------------------------------|--------------------------------|
|---5--5--5--5--/6-------6-------|---5-----------5------------6---|
|---3--3--3--3--/4-------4-------|---3-----------3------------4---|
    .  .  .  .                       .           .            
    E  E  E   E  Q       Q           Q           Q            H

|--------------------------------|--------------------------------|
|--------------------------------|--------------------------------|
|--------------------------------|--------------------------------|
|--------------------------------|---------------4------------5---|
|---5--5--5--5--/3-------3-------|---5-----------2------------3---|
|---3--3--3--3--/1-------1-------|---3----------------------------|
    .  .  .  .                       .           .


Gtr. 1 and 2


    W                                W
|--------------------------------|--------------------------------|
|--------------------------------|--------------------------------|
|---5----------------------------|--------------------------------|
|---5----------------------------|---6----------------------------|
|---3----------------------------|---6----------------------------|
|--------------------------------|---4----------------------------|


(01:26 - 01:45)


Gtr. 1  (x2)

     Q*  E   Q     E   E        E   E    Q   Q   E   E

|---/15--14--10----11--10---|---11--10------------------------|
|---------------------------|------------13--13--12--13-------|
|---------------------------|---------------------------------|
|---------------------------|---------------------------------|
|---------------------------|---------------------------------|
|---------------------------|---------------------------------|

    Q   E   E   Q   E   E        Q   E   E   E   E   E   E

|---10--10-------------------|-------------------10--11--13---|
|-----------12----------12---|---13--13--12--13---------------|
|---------------12--12-------|--------------------------------|
|----------------------------|--------------------------------|
|----------------------------|--------------------------------|
|----------------------------|--------------------------------|

     Q*  E   Q     E   E        E   E    Q   Q   E   E

|---/15--14--10----11--10---|---11--10------------------------|
|---------------------------|------------13--13--12--13-------|
|---------------------------|---------------------------------|
|---------------------------|---------------------------------|
|---------------------------|---------------------------------|
|---------------------------|---------------------------------|

    Q   E   E   Q   E   E        Q   E   E   H

|---10--10-------------------|--------------------------------|
|-----------12----------12---|---13--13--12--13---------------|
|---------------12--12-------|--------------------------------|
|----------------------------|--------------------------------|
|----------------------------|--------------------------------|
|----------------------------|--------------------------------|


Gtr. 2  (x2)

    Q   E  E       Q   E  E          Q   E  E       Q   E  E

|--------------------------------|--------------------------------|
|--------------------------------|--------------------------------|
|--------------------------------|---5---5--5-------5---5--5------|
|---5---5--5-------5---5--5------|---5---5--5-------5---5--5------|
|---5---5--5-------5---5--5------|---3---3--3-------3---3--3------|
|---3---3--3-------3---3--3------|--------------------------------|

    Q   E  E       Q   E  E          Q   E  E       Q   E  E

|--------------------------------|--------------------------------|
|--------------------------------|--------------------------------|
|--------------------------------|---5---5--5-------5---5--5------|
|---5---5--5-------5---5--5------|---5---5--5-------5---5--5------|
|---5---5--5-------5---5--5------|---3---3--3-------3---3--3------|
|---3---3--3-------3---3--3------|--------------------------------|
    
    Q   E  E       Q   E  E          Q   E  E       Q   E  E

|--------------------------------|--------------------------------|
|--------------------------------|--------------------------------|
|--------------------------------|---5---5--5-------5---5--5------|
|---5---5--5-------5---5--5------|---5---5--5-------5---5--5------|
|---5---5--5-------5---5--5------|---3---3--3-------3---3--3------|
|---3---3--3-------3---3--3------|--------------------------------|

    Q   E  E      Q       E   E      Q             E  E       H

|--------------------------------|--------------------------------|
|--------------------------------|--------------------------------|
|--------------------------------|--------------------------------|
|---5---5--5-------5-------------|---5-------------5--4-------5---|
|---5---5--5-------5------5--5---|---3-------------3--2-------3---|
|---3---3--3-------3------3--3---|--------------------------------|
                          .  .                     .  .

(01:46 - 02:05)


Gtr. 1 and 2  (x4)

    W                                W

|--------------------------------|--------------------------------|
|--------------------------------|--------------------------------|
|--------------------------------|--------------------------------|
|---7----------------------------|---3----------------------------|
|---7----------------------------|---3----------------------------|
|---5----------------------------|---1----------------------------|

    Q*       Q*       Q              Q   E E       H

|--------------------------------|--------------------------------|
|--------------------------------|--------------------------------|
|--------------------------------|--------------------------------|
|---2--------2--------2----------|---3---5\3-------2--------------|
|---2--------2--------2----------|---3---5\3-------2--------------|
|---0--------0--------0----------|---1---3\1-------0--------------|


(02:06 - 02:21)


Gtr. 1  (x4)

    Q   Q   E   E   Q                Q   E   E   E   E   E   E

|--------------------------------|-------------------12-----------|
|---13------12-------------------|-----------12--13------13--12---|
|-------14------14--12-----------|---14--14-----------------------|
|--------------------------------|--------------------------------|
|--------------------------------|--------------------------------|
|--------------------------------|--------------------------------|

    Q   E   E   E   E   E   E

|-------------------12-----------|
|-----------12--13------13--12---|
|---14--14-----------------------|
|--------------------------------|
|--------------------------------|
|--------------------------------|

Gtr. 2  (x2)

    Q   Q      E   E    Q            Q    E  E  E  E  E  E

|--------------------------------|--------------------------------|
|--------------------------------|--------------------------------|
|--------------------------------|--------------------------------|
|---5---2------4---2-------------|---3----3--3--3--3--3--3--------|
|---3---0------2---0----5--------|---3----3--3--3--3--3--3--------|
|-----------------------3--------|---1----1--1--1--1--1--1--------|
               .   .
    Q    E  E  E  E  E  E

|--------------------------------|
|--------------------------------|
|--------------------------------|
|---3----3--3--3--3--3--3--------|
|---3----3--3--3--3--3--3--------|
|---1----1--1--1--1--1--1--------|

    Q   Q      E   E    Q            Q    E  E  E  E  E  E

|--------------------------------|--------------------------------|
|--------------------------------|--------------------------------|
|--------------------------------|--------------------------------|
|---5---2------4---2-------------|---7----7--7--7--7--7--7--------|
|---3---0------2---0----5--------|---7----7--7--7--7--7--7--------|
|-----------------------3--------|---5----5--5--5--5--5--5--------|
               .   .
    Q    E  E  E  E  E  E

|--------------------------------|
|--------------------------------|
|--------------------------------|
|---7----7--7--7--7--7--7--------|
|---7----7--7--7--7--7--7--------|
|---5----5--5--5--5--5--5--------|


(02:22 - 02:40)


Gtr. 1 and 2  (x4)

    H             H                  H             H

|--------------------------------|--------------------------------|
|--------------------------------|--------------------------------|
|--------------------------------|--------------------------------|
|---7-------------5--------------|---7-------------5--------------|
|---7-------------5--------------|---7-------------5--------------|
|---5-------------3--------------|---5-------------3--------------|

    H             H                  H             H

|--------------------------------|--------------------------------|
|--------------------------------|--------------------------------|
|---7-------------5--------------|--------------------------------|
|---7-------------5--------------|---3-------------5--------------|
|---5-------------3--------------|---3-------------5--------------|
|--------------------------------|---1-------------3--------------|


(02:41 - 02:55)


Gtr. 1  (x4)

    Q   Q   E   E   Q                Q   E   E   E   E   E   E

|--------------------------------|-------------------12-----------|
|---13------12-------------------|-----------12--13------13--12---|
|-------14------14--12-----------|---14--14-----------------------|
|--------------------------------|--------------------------------|
|--------------------------------|--------------------------------|
|--------------------------------|--------------------------------|

    Q   E   E   E   E   E   E

|-------------------12-----------|
|-----------12--13------13--12---|
|---14--14-----------------------|
|--------------------------------|
|--------------------------------|
|--------------------------------|


Gtr. 2  (x2)

    Q   Q      E   E    Q            Q    E  E  E  E  E  E

|--------------------------------|--------------------------------|
|--------------------------------|--------------------------------|
|--------------------------------|--------------------------------|
|---5---2------4---2-------------|---3----3--3--3--3--3--3--------|
|---3---0------2---0----5--------|---3----3--3--3--3--3--3--------|
|-----------------------3--------|---1----1--1--1--1--1--1--------|
               .   .
    Q    E  E  E  E  E  E

|--------------------------------|
|--------------------------------|
|--------------------------------|
|---3----3--3--3--3--3--3--------|
|---3----3--3--3--3--3--3--------|
|---1----1--1--1--1--1--1--------|

    Q   Q      E   E    Q            Q    E  E  E  E  E  E

|--------------------------------|--------------------------------|
|--------------------------------|--------------------------------|
|--------------------------------|--------------------------------|
|---5---2------4---2-------------|---7----7--7--7--7--7--7--------|
|---3---0------2---0----5--------|---7----7--7--7--7--7--7--------|
|-----------------------3--------|---5----5--5--5--5--5--5--------|
               .   .
    Q    E  E  E  E  E  E

|--------------------------------|
|--------------------------------|
|--------------------------------|
|---7----7--7--7--7--7--7--------|
|---7----7--7--7--7--7--7--------|
|---5----5--5--5--5--5--5--------|


(02:56 - 03:16)


Gtr. 1  (x2)

     Q*  E   Q    E  E          E  E  Q   Q   E   E

|---/12--11--7----8--7------|---8--7--------------------------|
|---------------------------|---------10--10--9--10-----------|
|---------------------------|---------------------------------|
|---------------------------|---------------------------------|
|---------------------------|---------------------------------|
|---------------------------|---------------------------------|

    Q  E  E    Q  E  E           Q   E   E   E   E  E  E

|---7--7---------------------|-------------------7--8--10-----|
|---------9----------9-------|---10--10--9--10----------------|
|--------------9--9----------|--------------------------------|
|----------------------------|--------------------------------|
|----------------------------|--------------------------------|
|----------------------------|--------------------------------|

     Q*  E   Q    E  E          E  E  Q   Q   E   E

|---/12--11--7----8--7------|---8--7--------------------------|
|---------------------------|---------10--10--9--10-----------|
|---------------------------|---------------------------------|
|---------------------------|---------------------------------|
|---------------------------|---------------------------------|
|---------------------------|---------------------------------|

    Q  E  E    Q  E  E           Q   E   E   E

|---7--7---------------------|--------------------------------|
|---------9----------9-------|---10--10--9--10----------------|
|--------------9--9----------|--------------------------------|
|----------------------------|--------------------------------|
|----------------------------|--------------------------------|
|----------------------------|--------------------------------|


Gtr. 2  (x2)

    H             H                  H             H

|--------------------------------|--------------------------------|
|--------------------------------|--------------------------------|
|--------------------------------|--------------------------------|
|---2-------------2--------------|---3-------------3--------------|
|---2-------------2--------------|---3-------------3--------------|
|---0-------------0--------------|---1-------------1--------------|

    H*            E  E               Q   E  E  E  E  Q

|--------------------------------|--------------------------------|
|--------------------------------|--------------------------------|
|--------------------------------|--------------------------------|
|---2----------------------------|---7---7--6--7--9--10-----------|
|---2-------------2--2-----------|---5---5--4--5--7--8------------|
|---0-------------0--0-----------|--------------------------------|
                  .  .
    H             H                  H             H

|--------------------------------|--------------------------------|
|--------------------------------|--------------------------------|
|--------------------------------|--------------------------------|
|---2-------------2--------------|---3-------------3--------------|
|---2-------------2--------------|---3-------------3--------------|
|---0-------------0--------------|---1-------------1--------------|

    H*            E  E               Q   E  E   H

|--------------------------------|--------------------------------|
|--------------------------------|--------------------------------|
|--------------------------------|--------------------------------|
|---2----------------------------|--------------------------------|
|---2-------------2--2-----------|---7---7--6---7-----------------|
|---0-------------0--0-----------|---5---5--4---5-----------------|
                  .  .                      .             

(03:17 - 03:34)


Gtr. 1

    Q   Q   E   E   Q                Q   E   E   E   E   E   E

|--------------------------------|-------------------12-----------|
|---13------12-------------------|-----------12--13------13--12---|
|-------14------14--12-----------|---14--14-----------------------|
|--------------------------------|--------------------------------|
|--------------------------------|--------------------------------|
|--------------------------------|--------------------------------|

    Q   E   E   E   E   E   E

|-------------------12-----------|
|-----------12--13------13--12---|
|---14--14-----------------------|
|--------------------------------|
|--------------------------------|
|--------------------------------|

    Q   Q   E   E   Q                Q   E   E   E   E   E   E

|--------------------------------|-------------------12-----------|
|---13------12-------------------|-----------12--13------13--12---|
|-------14------14--12-----------|---14--14-----------------------|
|--------------------------------|--------------------------------|
|--------------------------------|--------------------------------|
|--------------------------------|--------------------------------|

    Q   E   E   E   E   E   E

|-------------------12-----------|
|-----------12--13------13--12---|
|---14--14-----------------------|
|--------------------------------|
|--------------------------------|
|--------------------------------|

    Q   Q   E   E   Q                Q   E   E   E   E   E   E

|--------------------------------|-------------------12-----------|
|---13------12-------------------|-----------12--13------13--12---|
|-------14------14--12-----------|---14--14-----------------------|
|--------------------------------|--------------------------------|
|--------------------------------|--------------------------------|
|--------------------------------|--------------------------------|

    Q   E   E   E   E   E   E

|-------------------12-----------|
|-----------12--13------13--12---|
|---14--14-----------------------|
|--------------------------------|
|--------------------------------|
|--------------------------------|

    Q   Q   E   E   Q                Q   E   E   E   E   E   E

|--------------------------------|-------------------12-----------|
|---13------12-------------------|-----------12--13------13--12---|
|-------14------14--12-----------|---14--14-----------------------|
|--------------------------------|--------------------------------|
|--------------------------------|--------------------------------|
|--------------------------------|--------------------------------|

    E   E   E   E   H

|--------------------------------|
|---13--12-----------------------|
|-----------14--13--14-----------|
|--------------------------------|
|--------------------------------|
|--------------------------------|


Gtr. 2  (x2)

    Q   Q      E   E    Q            Q    E  E  E  E  E  E

|--------------------------------|--------------------------------|
|--------------------------------|--------------------------------|
|--------------------------------|--------------------------------|
|---5---2------4---2-------------|---3----3--3--3--3--3--3--------|
|---3---0------2---0----5--------|---3----3--3--3--3--3--3--------|
|-----------------------3--------|---1----1--1--1--1--1--1--------|
               .   .
    Q    E  E  E  E  E  E

|--------------------------------|
|--------------------------------|
|--------------------------------|
|---3----3--3--3--3--3--3--------|
|---3----3--3--3--3--3--3--------|
|---1----1--1--1--1--1--1--------|

    Q   Q      E   E    Q            Q    E  E    Q    E  E

|--------------------------------|--------------------------------|
|--------------------------------|--------------------------------|
|--------------------------------|--------------------------------|
|---5---2------4---2-------------|---7----7--7----7----7--7-------|
|---3---0------2---0----5--------|---7----7--7----7----7--7-------|
|-----------------------3--------|---5----5--5----5----5--5-------|
               .   .
    E  E  E  E    H

|--------------------------------|
|--------------------------------|
|--------------------------------|
|---7--7--7--7----7--------------|
|---7--7--7--7----7--------------|
|---5--5--5--5----5--------------|





Comments


Popular Finntroll tabs & chords
En Maktig Har Bass Tabs
Den Sista Runans Dans 1 Chords
Galgasng Chords
Svart Djup Chords
Fudosagan Tabs
Trolhammaren Tabs
Trollhammaren (Intro) Tabs
Vargtimmen Tabs
Den Sista Runans Dans Ukulele
Korpens Saga Ukulele


Song lyrics



↑ Back to top | Tablatures and chords are parodies/interpretations of the original songs. You may use it for private study, scholarship, research or language learning purposes only
© 2014 AZChords.com Contact us | Privacy policy | DMCA | Add/correct tabs | Request tabs | Top 50 tabs