» » »

Finntroll, En Maktig Har Bass tabs (ver.1)

Artists:  A B C D E F G H I J K L M N O P Q R S T U V W X Y Z # 

En Maktig Har Bass tabs (ver.1)

Finntroll Tabs
 Rating:
4/5 (4 votes)
En Maktig Har lessons Tabs too difficult? Try these video lessons and learn fast
1
                A Mighty Horde – Finntroll
Drop D tuning

G|--------------|
D|--------------|
A|--5-55-0-4-5--|
D|--------------|  x19

G|-----------------------------------------------------------------|
D|-----------------------------------------------------------------|
A|-----------------------------------------------------------------|
D|--023--5-8-7-10----0-3-7-8-7----11-7-8-7-------------------------|

G|--------------|         |----------------------------------------|
D|--------------|         |----------------------------------------|
A|--5-55-0-4-5--|         |---5-5-0-0-1-0--------------------------|
D|--------------|  x15    |----------------------------------------|

G|----------------------------------------|       |----------------|
D|-----6-5-6----6-5-6------2-1-2----2-1-2-|       |----------------|
A|--5---------5----------3--------3-------|       |-3-0------------|
D|----------------------------------------|  x4   |----------------|

G|--------------|       |------------------------------------------|
D|--------------|       |------------------------------------------|
A|--5-55-0-4-5--|       |------------------------------------------|
D|--------------|  x11  |--023--5-8-7-10----11-7-8-7---------------|

G|---------------|       |-----------------------------------------|
D|---------------|       |-----------------------------------------|
A|---------------|       |-----------1-0---------------------------|
D|--00-77-66-77--| x12   |--5--2--0--------------------------------|

G|--------------------------------------|     |--------------------|
D|--------------------------------------|     |--------------------|
A|--5-0-5-0-5-0-5-0------1-0-4-5-0-1-0--|     |--5-0-1-0-----------|
D|---------------------4----------------| x2  |--------------------|

Flute Solo

G|----------|
D|----------|
A|-------0--|
D|--0--3--5-| x8

G|-----------------------|      |----------------------------------|
D|-----------------------|      |----------------------------------|
A|--5-5--888--10-10—8-55-|      |--5-5--8--10--12--7--5------------|
D|-----------------------| x3   |----------------------------------|

G|-----------------------|      |----------------------------------|
D|-----------------------|      |----------------------------------|
A|--5-5--888--10-10—8-55-|      |--5-5--8--10--12--7--5------------|
D|-----------------------| x3   |----------------------------------|


G|-----------------------------------------------------------------|
D|-----------------------------------------------------------------|
A|--555555555------------------------------------------------------|
D|-----------------------------------------------------------------|

G|-----------------------------------------------------------------|
D|-----------------------------------------------------------------|
A|--5-0-5-0-5-0-5-0------1-0-4-5-0-1-0-----------------------------|
D|---------------------4-------------------------------------------|

G|-----------------------------------------------------------------|
D|-----------------------------------------------------------------|
A|--5-0-5-0-5-0-5-0------1-0-4-5-0-1-0---5-0-1-0-------------------|
D|---------------------4-------------------------------------------|

G|-----------------------------------------------------------------|
D|-----------------------------------------------------------------|
A|--6-1-6-1-6-1-6-1-------2-1-5-6-1-2-1----------------------------|
D|----------------------5------------------------------------------|

G|-----------------------------------------------------------------|
D|-----------------------------------------------------------------|
A|--6-1-6-1-6-1-6-1-------2-1-5-6-1-2-1---6-1-2-1------------------|
D|----------------------5------------------------------------------|

G|-------------------------|      |--------------------------------|
D|-------------------------|      |--------------------------------|
A|--6-6--999--11-11---9-66-|      |--6-6--9--11--13--8--6----------|
D|-------------------------| x3   |--------------------------------|

G|-----------------------------------------------------------------|
D|-----------------------------------------------------------------|
A|--666666666------------------------------------------------------|
D|-----------------------------------------------------------------|

G|-----------------------------------------------------------------|
D|-----------------------------------------------------------------|
A|--6-6--9--11--13--8--6-------------------------------------------|
D|-----------------------------------------------------------------|
            
Submit corrections

comments powered by Disqus
↑ Back to top | Finntroll Bass for En Maktig Har. Lyrics for acoustic guitar and electric guitar. 1 Tablatures and chords are parodies/interpretations of the original songs. You may use it for private study, scholarship, research or language learning purposes only