» » »

Dice Bass tabs (ver.1)

Artists:  A B C D E F G H I J K L M N O P Q R S T U V W X Y Z # 

Dice Bass tabs (ver.1)

Finley Quaye
Rating:
0/5 (0 votes)

Hard to play? Try these video lessons and learn fast.
                Tuning: Standard

it was time i gave something back :).

Easy song, bass is barely hearable in the original but i played it with some friends 
so i wrote something, this fits perfectly.

Intro/Verse/Chorus:


G|--------77777777---------------------|
D|99999999--------77777777-------------|
A|------------------------77777777-----|   main riff       x?
E|-------------------------------------|

Interlude:

G|--------7~~------------------|
D|9~~-------------7~~----------|
A|------------------------7~~--|
E|-----------------------------|

So fairly average stuff really, in the second verse and second and last chorus i play 
slightly different to give the bass line abit of life. This isn't in the orignal but if 
playing with just a drummer, guitarist and singer it gives the song abit more depth i find.

G|--------7779997------------------------------|
D|99999999-------977777779-------7-------------|
A|------------------------7777779--------------|
E|---------------------------------------------|

Sounds awesome :)


Thanks, have fun.
            
Hard to play? Try these video lessons and learn fast. | Correct




comments powered by Disqus
↑ Back to top | Tablatures and chords are parodies/interpretations of the original songs. You may use it for private study, scholarship, research or language learning purposes only