» » »

Stay And Drown Tabs (ver.1)

Artists:  A B C D E F G H I J K L M N O P Q R S T U V W X Y Z # 

Stay And Drown Tabs (ver.1)

Finger 11
Rating:
0/5 (0 votes)

Hard to play? Try these video lessons and learn fast.
                Intro/Verse- 
E---------------------------------------------------------------- 
B---------------------------------------------------------------- 
G----------------------------------------------------------------
D------------3-----2----2--0---------------3-------2---- 2---0---
A-------5-------5--3----3--1----------5--------5--3---3-----1---- 
D--0-------------------------------0-----------------------------



E-------------------------------------------------------------- 
B-------------------------------------------------------------- 
G--------------------------------------------------------------
D--5555-5555-x-x- /888-8888------------------------------------ 
A--5555-5555-x-x- /888-8888------------------------------------ 
D--5555-5555-x-x- /888-8888------------------------------------ 


-Chorus- 
E-----------------------------------------------------
B----------------------------------------------------- 
G----------------------------------------------------- 
D--7777-7777-8888-10101010--7777-7777-8888-555h7-7---- 
A--5555-7777-8888-10101010--5555-7777-8888-555h7-5---- 
D--0000-7777-8888-10101010--0000-7777-8888-555h7-0---- 


E------------------------------------------------------------- 
B------------------------------------------------------------- 
G------------------------------------------------------------- 
D----7777-7777-8888-8888--33\22--22-00------------------------ 
A----5555-7777-8888-8888--55\33--33-11------------------------ 
D----0000-7777-8888-8888--------------------------------------



-Bridge- 
E----------------------------------------------------------
B----------------------------------------------------------
G----------------------------------------------------------
D----------------------------------------------------------
A--------4----3----2-----------------4-----3-----2---------
D-0-0------0----0------1-1h2--0-0----0-----0------1-1h2---- 

-2nd preChorus- 
E--------------------------------------------------------- 
B---------------------------------------------------------
G---------------------------------------------------------
D-55555555/88888888\22222222------------------------------ 
A-55555555/88888888\22222222-----4----3----2-------------- 
E-55555555/88888888\22222222--0----0----0-----1-1h2-------
            
Hard to play? Try these video lessons and learn fast. | Correct




comments powered by Disqus
↑ Back to top | Tablatures and chords are parodies/interpretations of the original songs. You may use it for private study, scholarship, research or language learning purposes only