» » »

Slow Chemicals Tabs (ver.1)

Artists:  A B C D E F G H I J K L M N O P Q R S T U V W X Y Z # 

Slow Chemicals Tabs (ver.1)

Finger 11
Rating:
0/5 (0 votes)

Hard to play? Try these video lessons and learn fast.
                Intro (Guitar 1)
|--------------------------------------------------------------------------------|
|---3----3-----------------------------------------------------------------------|
|---2----2-----------------------------------------------------------------------|
|---0----0-----------------------------------------------------------------------|
|---0----0-----------------------------------------------------------------------|
|---0----0-----------------------------------------------------------------------|
Intro (Guitar 2)
|--------------------------------------------------------------------------------|
|--------------------------------------------------------------------------------|
|--------------------------------------------------------------------------------|
|---2----8---------8------7----7----6---6------------7---7---6---6-------6----6--|
|---2----8---------8------4----4----4---4------------4---4---4---4-------4----4--|
|---2----8---------8------4----4----4---4------------4---4---4---4-------4----4--|

Verse 
|--------------------------------------------------------------------------------|
|--------------------------------------------------------------------------------| 
|--------------------------------------------------------------------------------| 
|---------7--------------7---slide--5---------------7----------5----------8-/\---| 
|---------8--------------8----------7--------------------7-----------------------| 
--0---------------------------------------------5--------------------------------| 

Prechorus 
|-------------------------|
|-------------------------|
|-------------------------|
|---------2---3---5---7---|
|---1---------------------|
|-------------------------|

Chorus 
|-----------------------------------------------------------------------------------|
|-----------------------------------------------------------------------------------| 
|-----------------------------------------------------------------------------------|
|--------------7--------------7---slide--5---------------8--------8---10-----8--7---| 
|--------------8--------------8----------7--------------10-------10---10----10--8---| 
|---0---------------------------------------------0---------------------------------| 

Bridge 
|-------------------------------------------------------------------------|
|-------------------------------------------------------------------------|
|--------4-------3--------------------------------------------------------|
|--------2-------5-------0-------0-------0-----0------0----0-----0----0---|
|--------2----------------------------------------------------------------|
|---------------------3-----3---------3-----3------2-----2----2-----2-----|
            
Hard to play? Try these video lessons and learn fast. | Correct




comments powered by Disqus
↑ Back to top | Tablatures and chords are parodies/interpretations of the original songs. You may use it for private study, scholarship, research or language learning purposes only