» » »

Finger 11, Sick Of It All Tabs (ver.1)

Artists:  A B C D E F G H I J K L M N O P Q R S T U V W X Y Z # 

Sick Of It All Tabs (ver.1)

Finger 11 Tabs
Rating:
0/5 (0 votes)
Hard to play? Try these video lessons and learn fast.
                Verse/Intro Last time
e---------------------------I--------------------------
B---------------------------I--------------------------
G---------------------------I-5------5--5-4-------5-4---
D---5---5---5---5---5---5---I------5--------5---5-------
A-3---3---3---3---2---2---2-I----3------------3---------
D---------------------------I--------------------------
"Are the sins getting staler..."
Verse
e-------------------
B-------------------
G-5--5-5--4-4-4--5--
D-0--0-0--0-0-0--0--
A-------------------
D-------------------
"Take a look how they found you..."
Chorus
e----------------------------
B--------3-------------------
G--------2------7-7-6-6------
D-----0--0--------------3--3-
A-x-x-0--0------5-5-4-4-3--3-
D-x-x-0--0--0-0---------3--3-
"How far down..."
e---------------
B---------3--3--
G-5-5-5---2--2--
D---------0--0--
A-3-3-3---0--0--
D-------0-0--0--
"If you never come up again..."

Bridge/Outro (8 strums each)
e---------
B---------
G-7--5----
D-5--3----
A-5--3----
D-5--3----
            

comments powered by Disqus
↑ Back to top | Finger 11 Tabs for Sick Of It All. Lyrics for acoustic guitar and electric guitar. Tablatures and chords are parodies/interpretations of the original songs. You may use it for private study, scholarship, research or language learning purposes only