» » »

Finger 11, Shudder Tabs (ver.1)

Artists:  A B C D E F G H I J K L M N O P Q R S T U V W X Y Z # 

Shudder Tabs (ver.1)

Finger 11 Tabs
 Rating:
4/5 (4 votes)
Shudder lessons Tabs too difficult? Try these video lessons and learn fast
                Fill 1

2x
e---------|--------
b-x-x-x-3-|-x-x-x--
g-x-x-x-2-|-x-x-x--
d---------|--------
a---------|--------
D---------|--------

End Fill 1

Fig. 1

e---------------
b---------------
g-----7---5----- 4x
d-0---7---5---3-
a-0---5---3---3-
D-0-----------3-

End Fig. 1

Fill 2

e--------------
b--------------
g------r--------
d-0-0--e---0-0-
a-0-0--s---0-0-
D-0-0--t---0-0-

End Fill 2

Fig. 1

Fig. 2 (Does not show the pattern)

e-----------------------------------
b----------------------------------- 2x
g-------r--------r---------r--7---5-
d--2-2--e--5-5---e---3-3---e--7---5-
a--2-2--s--5-5---s---3-3---s--5---3-
D--2-2--t--5-5---t---3-3---t--------

e-----------------------------
b----------------------------- 2x
g------xx-----xx-----xx-7---5-
d--2-2-xx-5-5-xx-3-3-xx-7---5-
a--2-2-xx-5-5-xx-3-3-xx-5---3-
D--2-2-xx-5-5-xx-3-3-xx-------

End Fig. 2

Fig. 3

|-grad. bend-|
e--------------------------------------
b--------------------------------------
g---10---9---5---7-----5-5b------------
d------0---0---0---5h7-5--------------- <-- opens are
a-0--------------------3--------------- slightly muted
D-0------------------------------------

e-----------------5h6p5-5-------
b--------------------------rake-
g-5---5---5---5-----------------
d---7---7---7---7---------------
a-------------------------------
D-------------------------------

End Fig. 3
            
Submit corrections

comments powered by Disqus
↑ Back to top | Finger 11 Tabs for Shudder. Lyrics for acoustic guitar and electric guitar. Tablatures and chords are parodies/interpretations of the original songs. You may use it for private study, scholarship, research or language learning purposes only