» » »

Bones And Joints Tabs (ver.1)

Artists:  A B C D E F G H I J K L M N O P Q R S T U V W X Y Z # 

Bones And Joints Tabs (ver.1)

Finger 11
Rating:
0/5 (0 votes)

Hard to play? Try these video lessons and learn fast.
                Verse
e------------------------------------------
B-----0--0----0-0----0-0---0-0-0--0-0-0----
G---0-0--0----0------0-0---0-0-0--0-0-0----
D---2---------2------2-----2------2--------
A------------------------------------------
D-5---------4------0-----2-----------------
"Drown my eyes..."
Pre-Chorus
e-----------------
B-----------------
G-----------------
D-5--2--2/10-10---
A-5--2--2/10-10---
D-5--2--2/10-10---
"I'm colliding..."
Chorus
e-------------------
B-------------------
G----9-7-----9-7-7-- x2 
D-0--9-7-7---9-7-7--
A-0--7-5-7---7-5-5--
D-0------7----------
"I've been down here before...

(cont.)
e---------------------------------------------------------
B---------------------------------------------------------
G----9-7----14-12-12--12----------------------------------
D-0--9-7-7--14-12-12--12-12-12----------------------------
A-0--7-5-7--12-10-10--10-12-12--------------------12--10--
D-0------7---------------12-12--13p12h13p12h13p12---------
"Find my way out of the game again..."
Bridge
e--------------
B--------------
G-7--6--4---4--
D-5--4--2---2--
A-5--4--2---2--
D-5--4--2---2--
"You lost what made you you..."

Soft Verse (Bridge2)
e-----------------------------------------------
B-----0--0----0-0----0-0---0-0-0--0-0-0---------
G---0-0--0----0------0-0---0-0-0--0-0-0---------
D-5---------4------0-----2----------------------
A-----------------------------------------------
D-----------------------------------------------
"I will leave you..."
            
Hard to play? Try these video lessons and learn fast. | Correct




comments powered by Disqus
↑ Back to top | Tablatures and chords are parodies/interpretations of the original songs. You may use it for private study, scholarship, research or language learning purposes only