» » »

Otherworld Tabs

Artists:  A B C D E F G H I J K L M N O P Q R S T U V W X Y Z # 

Otherworld Tabs

(ver. 1)
Final Fantasy X Tabs
 Rating:
4/5 (4 votes)
    Otherworld lessons Tabs too difficult? Try these video lessons and learn fast
                Notes:
this was a really quick tab, cuz i didn't bother with any of the solo

i tuned it drop D and down a half step for the DAE strings, just cuz
it's more convenient to play this way
****

intro

these are unison bends
e-------------------------------------
b------14---------9-------------------
g------16b18------11b13---------------
cb-0-0--------0-0-------6-5-6-5-6-5-3-
gb-0-0--------0-0-------6-5-6-5-6-5-3-
cb-0-0--------0-0-------6-5-6-5-6-5-3-

verse
e---------------------------------
b---------------------------------
g---------------------------------
cb-0-0-3-2--0-0-6-5--0-0-7-6\5--3-
gb-0-0-3-2--0-0-6-5--0-0-7-6\5--3-
cb-0-0-3-2--0-0-6-5--0-0-7-6\5--3-
            
Submit corrections

↑ Back to top | Final Fantasy X Tabs for Otherworld. Lyrics for acoustic guitar and electric guitar. Tablatures and chords are parodies/interpretations of the original songs. You may use it for private study, scholarship, research or language learning purposes only