» » »

Filter, You Walk Away Tabs (ver.2)

Artists:  A B C D E F G H I J K L M N O P Q R S T U V W X Y Z # 

You Walk Away Tabs (ver.2)

Filter Tabs
 Rating:
4/5 (4 votes)
You Walk Away lessons Tabs too difficult? Try these video lessons and learn fast
                Intro/verse		(second part only played in intro)
D|----------------|----------------
A|----------------|----------------
F|----------------|----------------
C|-1-3--1-3--1-3--|--1-3--1-3--1-3-
G|-1-3--1-3--1-3--|--1-3--1-3--1-3-
C|-1-3--1-3--1-3--|--1-3--1-3--1-3-
P.m..............         ...

verse 2
D|---------------------
A|---------------------
F|---------------------
C|-1-3--1-3--1-1/(6)---
G|-1-3--1-3--1-1/(6)---
C|-1-3--1-3--1-1/(6)---

Pre chorus
D|--------------------------------------
A|--------------------------------------
F|--------------------------------------
C|--5-6--5-6-0-------3333-1111-0000000--
G|--5-6--5-6-0-------3333-1111-0000000--
C|--5-6--5-6-0-------3333-1111-0000000--
P.M. 		     .................

Chorus
D|---------------------------------------------
A|---------------------------------------------
F|--11-12-11-----------------------------------
C|---x--x--x--10-10-10-10--8-8--5-5--8-8--5-5--
G|---9/10\-9--10-10-10-10--8-8--5-5--8-8--5-5--
C|------------10-10-10-10--8-8--5-5--8-8--5-5--
                 -OR-
D|--------------------------------------------
A|--------------------------------------------
F|--11-12-11-11-11-11-11----------------------
C|---x--x--x--x--x--x--x--8-8--5-5--8-8--5-5--
G|---9/10\-9--9--9--9--9--8-8--5-5--8-8--5-5--
C|------------------------8-8--5-5--8-8--5-5--


D|--------------------------
A|--------------------------
F|--------------------------
C|-0-1--0-1-0-1--0-1---5h6--
G|-0-1--0-1-0-1--0-1---5h6--
C|-0-1--0-1-0-1--0-1---5h6--
            
Submit corrections

comments powered by Disqus
↑ Back to top | Filter Tabs for You Walk Away. Lyrics for acoustic guitar and electric guitar. Tablatures and chords are parodies/interpretations of the original songs. You may use it for private study, scholarship, research or language learning purposes only