» » »

Filter, You Walk Away Tabs (ver.1)

Artists:  A B C D E F G H I J K L M N O P Q R S T U V W X Y Z # 

You Walk Away Tabs (ver.1)

Filter Tabs
 Rating:
4/5 (4 votes)
You Walk Away lessons Tabs too difficult? Try these video lessons and learn fast
1
                
Tuning: Drop C (C,G,C,F,A,D)
  
Intro 1 & verse 1 (play 8 times): 
-1-3---1-3---1-3--------------------------------------------------------------
-1-3---1-3---1-3--------------------------------------------------------------
-1-3---1-3---1-3--------------------------------------------------------------
 . . . . . . . .
  palm muted

intro 2 & verse 2 (play 8 times):  
-1-3---1-3-1-6----------------------------------------------------------------
-1-3---1-3-1-6----------------------------------------------------------------
-1-3---1-3-1-6----------------------------------------------------------------
                                                                             

pre-chorus (play 3 times):                                                                             
-5-6-5-5-6--0---3-3-3-3-1-1-1-1-0-0-0-0-0-0-0-0-------------------------------
-5-6-5-5-6--0---3-3-3-3-1-1-1-1-0-0-0-0-0-0-0-0-------------------------------
-5-6-5-5-6--0---3-3-3-3-1-1-1-1-0-0-0-0-0-0-0-0-------------------------------
 
chorus guitar 1 (play 4 times):              play this after 4th time (after 5th for last chorus)
--------------------------------------------|---------------------------------
--------------------------------------------|---------------------------------
-11/12/11(hold)-----------------------------|-14------------------------------
-x---x--x-----------8-8--5-5--8-8--5-5--8-5-|-14------------------------------
-9/-10/-9(hold)-----8-8--5-5--8-8--5-5--8-5-|-12------------------------------
--------------------8-8--5-5--8-8--5-5--8-5-|-12------------------------------


chorus guitar 2 (play 4 times):              play this after 4th time (after 5th for last chorus)
--------------------------------------------|---------------------------------
--------------------------------------------|---------------------------------
--------------------------------------------|---------------------------------
-0--0-0-0--10---10--8-8--5-5--8-8--5-5--8-5-|-14------------------------------
-0--0-0-0--10---10--8-8--5-5--8-8--5-5--8-5-|-12------------------------------
-0--0-0-0--10---10--8-8--5-5--8-8--5-5--8-5-|-12------------------------------
                                                                      
                                                                                                                                                           
bridge :
-0-0---0-0-0---0-0---0-0-0---5-6---0-0-0---0-0---0-0-0---5-6---0-0-0---0-0---0-0-0---5-6---0-0-0---0-0---0-0-0---
-0-0---0-0-0---0-0---0-0-0---5-6---0-0-0---0-0---0-0-0---5-6---0-0-0---0-0---0-0-0---5-6---0-0-0---0-0---0-0-0---
-0-0---0-0-0---0-0---0-0-0---5-6---0-0-0---0-0---0-0-0---5-6---0-0-0---0-0---0-0-0---5-6---0-0-0---0-0---0-0-0---
 . . . . . . . . . . . . . . . . . . . . . . . . . . . . . . . . . . . . . . . . . . . . . . . . . . . . . . . .   
          palm muted


Order of riffs:

intro 1
intro 2 
verse 1
verse 2
pre-chorus
chorus
verse 1 (play 6 times)
verse 2
pre-chorus 
chorus
middle (weird noises)
bridge
pre-chorus (play 2 times)
chorus (play 5 times)
            
Submit corrections

comments powered by Disqus
↑ Back to top | Filter Tabs for You Walk Away. Lyrics for acoustic guitar and electric guitar. 1 Tablatures and chords are parodies/interpretations of the original songs. You may use it for private study, scholarship, research or language learning purposes only