» » »

Under Tabs (ver.1)

Artists:  A B C D E F G H I J K L M N O P Q R S T U V W X Y Z # 

Under Tabs (ver.1)

Filter
Rating:
0/5 (0 votes)

Hard to play? Try these video lessons and learn fast.
                Tuning: Drop D

intro is done on bass with distortion

guitar comes in at :48
----------------|-------------------------------------------------------------
----------------|-------------------------------------------------------------
----------------|-------------------------------------------------------------
-00--00--00--00-|-00-00-00-00-3-----------------------------------------------
-00--00--00--00-|-00-00-00-00-3-----------------------------------------------
-00--00--00--00-|-00-00-00-00-3-----------------------------------------------
                                                                              

first pre-chorus
-3-5-5-5--3-5-5-5--3-5-5-5--3-5-6-6-------------------------------------------
-3-5-5-5--3-5-5-5--3-5-5-5--3-5-6-6-------------------------------------------
pm.................................                                             


chorus...............
-------------|----------------------------------------------------------------
-------------|----------------------------------------------------------------
-------------|----------------------------------------------------------------
--6-3-5-3-0--|-3-0-0-0--------------------------------------------------------
--6-3-5-3-0--|-3-0-0-0--------------------------------------------------------
--6-3-5-3-0--|-3-0-0-0--------------------------------------------------------
                                                                              


2:05
--0-0-0-0-0-0-0-0-------------------------------------------------------------
--0-0-0-0-0-0-0-0-------------------------------------------------------------
--0-0-0-0-0-0-0-0-------------------------------------------------------------
                                                                              


end of second verse
2:30
--5/7---------5/7---------5/7---------5/7-88----------------------------------
--5/7--xxxxxx-5/7-xxxxxx--5/7-xxxxxx--5/7-88----------------------------------
--3/5--xxxxxx-3/5-xxxxxx--3/5-xxxxxx--3/5-66----------------------------------
-------xxxxxx-----xxxxxx------xxxxxx------------------------------------------
                                                                              


second pre-chorus
-5/777777-5/777777-5/777777-5/7-88888-----------------------------------------
-5/777777-5/777777-5/777777-5/7-88888-----------------------------------------
-3/555555-3/555555-3/555555-3/5-66666-----------------------------------------
                                                                              


last chorus/outro
3:17
--3-0-0-0--3-0-0-0--3-0-0-0--3-0-6-5------------------------------------------
--3-0-0-0--3-0-0-0--3-0-0-0--3-0-6-5------------------------------------------
--3-0-0-0--3-0-0-0--3-0-0-0--3-0-6-5------------------------------------------
            
Hard to play? Try these video lessons and learn fast. | Correct




comments powered by Disqus
↑ Back to top | Tablatures and chords are parodies/interpretations of the original songs. You may use it for private study, scholarship, research or language learning purposes only