» » »

Filter, The Take Tabs (ver.1)

Artists:  A B C D E F G H I J K L M N O P Q R S T U V W X Y Z # 

The Take Tabs (ver.1)

Filter Tabs
Rating:
0/5 (0 votes)
Hard to play? Try these video lessons and learn fast.
                this is my first tab so its not verry good and 
probly not correct i am missing a bit of the 
choures and a bit about 1:20 min to 30 from the
 end so if you con work it out please mail me 

Tuning:drop D

e|-------------------------------------|
B|-------------------------------------|
G|-------------------------------------|
D|-6---------6-------6---------3-5-3-5-| X4
A|-6-0-0-0-0-6-0-0-0-6-0-0-0-0-3-5-3-5-|
D|-6-0-0-0-0-6-0-0-0-6-0-0-0-0-3-5-3-5-|

e|-----------------------|
B|-----------------------|
G|-----------------------|
D|-----------------3-5-3-| X8
A|-----------------3-5-3-|
D|-0-0-0-0-0-0-0-0-3-5-3-|

e|----------------------------------|
B|----------------------------------|
G|----------------------------------|
D|-8-8-8-8-8-8-8-8--5-5-5-5-5-5-5-5-|
A|-8-8-8-8-8-8-8-8--5-5-5-5-5-5-5-5-|
D|-8-8-8-8-8-8-8-8--5-5-5-5-5-5-5-5-|

still wating for the end of choures

e|-------------------------------------|
B|-------------------------------------|
G|-------------------------------------|
D|-6---------6-------6---------3-5-3-5-| X4
A|-6-0-0-0-0-6-0-0-0-6-0-0-0-0-3-5-3-5-|
D|-6-0-0-0-0-6-0-0-0-6-0-0-0-0-3-5-3-5-|

e|-----------------------|
B|-----------------------|
G|-----------------------|
D|-----------------3-5-3-| X8
A|-----------------3-5-3-|
D|-0-0-0-0-0-0-0-0-3-5-3-|

e|----------------------------------|
B|----------------------------------|
G|----------------------------------|
D|-8-8-8-8-8-8-8-8--5-5-5-5-5-5-5-5-|
A|-8-8-8-8-8-8-8-8--5-5-5-5-5-5-5-5-|
D|-8-8-8-8-8-8-8-8--5-5-5-5-5-5-5-5-|

still wating for the end of choures

e|-------------------------------------|
B|-------------------------------------|
G|-------------------------------------|
D|-6---------6-------6---------3-5-3-5-| X4
A|-6-0-0-0-0-6-0-0-0-6-0-0-0-0-3-5-3-5-|
D|-6-0-0-0-0-6-0-0-0-6-0-0-0-0-3-5-3-5-|

the other bit i dont no

e|-------------------------------------|
B|-------------------------------------|
G|-------------------------------------|
D|-6---------6-------6---------3-5-3-5-| X8
A|-6-0-0-0-0-6-0-0-0-6-0-0-0-0-3-5-3-5-|
D|-6-0-0-0-0-6-0-0-0-6-0-0-0-0-3-5-3-5-|

i no its cr*p but there is no other versoins lol
            

comments powered by Disqus
↑ Back to top | Filter Tabs for The Take. Lyrics for acoustic guitar and electric guitar. Tablatures and chords are parodies/interpretations of the original songs. You may use it for private study, scholarship, research or language learning purposes only