» » »

The Only Way (Is The Wrong Way) Tabs (ver.1)

Artists:  A B C D E F G H I J K L M N O P Q R S T U V W X Y Z # 

The Only Way (Is The Wrong Way) Tabs (ver.1)

Filter
Rating:
0/5 (0 votes)
Tabs too difficult? Try these video lessons and learn fast.
                

keys,               

x   = strum muted strings / mute string
... = played several times


****Intro/Verses****

Acoustic Guitar
E|--x...-----------x...--    --x...-----------x...--|
B|--3...-----------8...--    --3...------5-3--8...--|whatever
G|--2...--2-2-9-7--7...-- or --2...--2-2-4-2--7...--|you
D|--0...--2-0-9-7--5...--    --0...--2-0-2-0--5...--|like
A|--0...--0-0-7-5--5...--    --0...--0-0------5...--|
D|--0...-----------5...--    --0...-----------5...--|

****Pre-Chorus****

Acoustic Guitar   'everytime they try to make me change...'
E|--------------------------------------------------|
B|--------------------------------------------------|
G|--9...--10--12...----9...--7--5...----------------|
D|--9...--10--12...----9...--7--5...----------------|
A|--7...---8--10...----7...--5--3...----------------|
D|--7...---8--10...----7...--5--3...----------------|


****Chorus****

Gtr w/distortion & Acoustic   'and it feels like...'
E|--------x-----------------------------------------|
B|--------3-----------------------------------------|
G|--7...--2...--9......-----------------------------|
D|--7...--0...--9......-----------------------------|
A|--5...--0...--7......-----------------------------|
D|--5...--0...--7......-----------------------------|


I didn't find out how they make that sound in the Interlude part yet...


Anyway...Have fun!
            
Tabs too difficult? Try these video lessons and learn fast.


comments powered by Disqus
↑ Back to top | Tablatures and chords are parodies/interpretations of the original songs. You may use it for private study, scholarship, research or language learning purposes only