» » »

Takpicfil Tabs (ver.1)

Artists:  A B C D E F G H I J K L M N O P Q R S T U V W X Y Z # 

Takpicfil Tabs (ver.1)

Filter
Rating:
0/5 (0 votes)

Hard to play? Try these video lessons and learn fast.
                Filter
"Take a picture"
Title of record
Electric intro…
E---0-----------------------
B---0-----------------------
G---9-----12-12--11-----
D---11----12-12--11-----
A----------10-10---9------
D----------------------------

The verse has three guitar parts in it two
acustic and one electric the electric is the 
same as the intro as is one acustic part the
second acustic plays this…

E--------------------------------------------------just keep the B and E open when 
B--------------------------------5--5----4-4----playing the part on the 4th fret
G-4/6-6--6-4/6-6-6------4--4----4-4----
D-5/7-7--7-5/7-7-7------4--4----4-4----
A--------------------------------5--5----5-5----

This part isnt on the cd but its played live before the chorus….
As the verse ends with this part….
G-12--11---------
D-12--11---------
A-10---9--------

It goes into this when rich sings "kicking and screaming"
G--12--11-9--7--------------
D--12--11-9--7--------------
A--10---9--7--5-------------

Chorus...
D---9---14-11/14/7--------
A---7---12-9/12/5--------
D---7---12-9/12/5---------

And thats the whole song
            
Hard to play? Try these video lessons and learn fast. | Correct




comments powered by Disqus
↑ Back to top | Tablatures and chords are parodies/interpretations of the original songs. You may use it for private study, scholarship, research or language learning purposes only