» » »

Take A Picture Bass tabs (ver.2)

Artists:  A B C D E F G H I J K L M N O P Q R S T U V W X Y Z # 

Take A Picture Bass tabs (ver.2)

Filter
Rating:
0/5 (0 votes)

Hard to play? Try these video lessons and learn fast.
                Riff 1 (intro/verse) 
G:------------------------------------------------------------------| 
D:------------------------------------------------------------------| 
A:-----------------------------------5-5-5-5-5-5-5-5-5-5-5-5-5-5-5-5| 
E:-5-5-5-5-5-5-5-5-5-5-5-5-5-5-5-5----------------------------------| 

Riff 2 (chorus) 
G:--------------------------------------------------------------------| 
D:--------------------------------------------------------------------| 
A:------------------5-5-5-5-5-5-5-5-----------------------------------| 
E:-5-5-5-5-5-5-5-5-------------------7-7-7-7-7-7-7-7--3-3-3-3-3-3-3-3-| 

End on: 
G:---| 
D:---| 
A:---| 
E:-5-| 
*hold this note 

Song Structure: 
Riff 1-8x 
Riff 2-4x 
Riff 1-7x 
Riff 2-4x 
Riff 1-4x 
Riff 2-6x 
            
Hard to play? Try these video lessons and learn fast. | Correct




comments powered by Disqus
↑ Back to top | Tablatures and chords are parodies/interpretations of the original songs. You may use it for private study, scholarship, research or language learning purposes only