» » »

Take A Picture Tabs (ver.2)

Artists:  A B C D E F G H I J K L M N O P Q R S T U V W X Y Z # 

Take A Picture Tabs (ver.2)

Filter
Rating:
3/5 (2 votes)

Tabs too difficult? Try these video lessons and learn fast.
                
I was going over the other tabs and it's pretty sad...so I decided to make it easy
on everyone and combine everything together so we're all on the same page. For sake
of fitting the tab, I'll tell you it's standard and get rid of the letters.

The main riff goes a little something like this (drop D tuning is optional):

-0-0--0-0-0-0-0-0--0-0-0--0-0-0-0-0-0--3-3--2-2-2-2-2-2--3-3-3--2-2-2-2-2-2-
-0-0--2-2-2-2-2-2--0-0-0--3-3-3-3-3-3--3-3--3-3-3-3-3-3--3-3-3--3-3-3-3-3-3-
-2-2--2-2-2-2-2-2--2-2-2--2-2-2-2-2-2--2-2--2-2-2-2-2-2--2-2-2--2-2-2-2-2-2-
-2-2--2-2-2-2-2-2--2-2-2--2-2-2-2-2-2--0-0--0-0-0-0-0-0--0-0-0--0-0-0-0-0-0-
-0-0--0-0-0-0-0-0--0-0-0--0-0-0-0-0-0---------------------------------------
----------------------------------------------------------------------------

The strum is obvious, so if you listen, you can hear how he hits the chords. I don't
really know how I could tab it out, because it's easier on paper, but...let's get to
the chorus.

I didn't exactly get the chorus's strum, so I improvised. The strums, however, are: down
down down down up down up down up.

-0-0-0-0--0-0-0-0-0--2-2-2-2--2-2-2-2-2--2-2-2-2--2-2-2-2-2-|
-2-2-2-2--2-2-2-2-2--3-3-3-3--3-3-3-3-3--2-2-2-2--2-2-2-2-2-|
-2-2-2-2--2-2-2-2-2--2-2-2-2--2-2-2-2-2--4-4-4-4--4-4-4-4-4-|
-2-2-2-2--2-2-2-2-2--0-0-0-0--0-0-0-0-0--4-4-4-4--4-4-4-4-4-|
-0-0-0-0--0-0-0-0-0----------------------2-2-2-2--2-2-2-2-2-|
-----------------------------------------2-2-2-2--2-2-2-2-2-|

|-3-3-3-3--3-3-3-3-3-|
|-3-3-3-3--3-3-3-3-3-|
|-0-0-0-0--0-0-0-0-0-|
|-0-0-0-0--0-0-0-0-0-|
|-2-2-2-2--2-2-2-2-2-|
|-3-3-3-3--3-3-3-3-3-|

The G chord I'm not certain on but I'm fairly sure that's what it is. I couldn't tell
you the order of the two riffs if you paid me in chocolate, but it's not that hard.

Well...happy huntin'.

- Tikku77 and a half -^v^-
            
Tabs too difficult? Try these video lessons and learn fast.




comments powered by Disqus
↑ Back to top | Tablatures and chords are parodies/interpretations of the original songs. You may use it for private study, scholarship, research or language learning purposes only