» » »

Take Another Bass tabs (ver.1)

Artists:  A B C D E F G H I J K L M N O P Q R S T U V W X Y Z # 

Take Another Bass tabs (ver.1)

Filter
Rating:
5/5 (1 vote)

Hard to play? Try these video lessons and learn fast.
                Filter
Bass tab for take another
Short buss

Intro- all harmonics…
G----------------------------------------just start with harmonics on the fifth fret and move towards the first,
D----------------------------------------and hold it on the first until the verse starts
A----------------------------------------
D-(5)/(4)/(3)/(2)/(1)(1)(1)(1)-----

Verse-
G---------------------this is whats played through the entire verse note: its not the right timing that you'll
D---------------------have to fiqure that out your self. This is also played all through the "cant take you with  
A--------------------- me"part.
D----0-3/4/5/6-----

Chorus-
      "take another piece…"
G----------------------------------------------------------------------------
D----------------------------------------------------------------------------
A----------------------------------------------------------------------------
D---7-7-7-7----8-8-8--7-7-7--8-8-8-7/5-5-5--0-0-0-0-3-3-5-5---

G----------------------------------------------------------------------------
D----------------------------------------------------------------------------
A----------------------------------------------------------------------------
D----7-7-7-7-8-8-8--7-7-7--8-8-8-7/5-5-5-5--0-0-0-0-0-0-0-0---

After chorus…
G--------------------------------------------------------------------------- the "p's" stand for pull offs on the notes…
D---------------------------------------------------------------------------
A---------------------------------------------------------------------------
D----0--0-0-0-3p-0-2p-0-2p-0-2p-0-------------------------------

Those are all the parts in the song you just need to get the timing and the order from the CD. Good luck!
            
Hard to play? Try these video lessons and learn fast. | Correct




comments powered by Disqus
↑ Back to top | Tablatures and chords are parodies/interpretations of the original songs. You may use it for private study, scholarship, research or language learning purposes only