>
 >
One

One Guitar Tabs

Filter - One chords, tabs, tablatures, lyrics

Guitar lessons | Add/correct | Request | Top 50 tabs Artists:  A B C D E F G H I J K L M N O P Q R S T U V W X Y Z 0-9

One Guitar Tabs – Filter

CD, Sheet music, Poster

Do you like One? Share with your friends now
Bass TabsBass Tabs v2ChordsTabsUkulele
Hi,
Band: Filter
Tuning: D A D G B E

Okay, this thing is easy. Intro and verses are played with drums and zynthies, so your 
begins with the pre-chorus
(Notice: you'll need a second guitar for chorus and solo!)

Pre-Chorus (It's just no good anymore..)
|-----------------------------------------------------------------|
|-----------------------------------------------------------------|
|-----------------------------------------------------------------| play
|-8-8-8-8-8-8-8-8-6-6-6-6-6-6-6-6-3-3-3-3-3-3-3-3-3-3-3-3-3-3-3-3-|  twice
|-8-8-8-8-8-8-8-8-6-6-6-6-6-6-6-6-3-3-3-3-3-3-3-3-3-3-3-3-3-3-3-3-|
|-8-8-8-8-8-8-8-8-6-6-6-6-6-6-6-6-3-3-3-3-3-3-3-3-3-3-3-3-3-3-3-3-|

Chorus (One is the loneliest number..)
|------------------------------------------------------------------|
|------------------------------------------------------------------|
|------------------------------------------------------------------| play
|-3-3-3-3-3-3-3-3-6-6-6-6-6-6-6-6-8-8-8-8-8-8-8-8-8-8-8-8-8-8-8-8--|  twice
|-3-3-3-3-3-3-3-3-6-6-6-6-6-6-6-6-8-8-8-8-8-8-8-8-8-8-8-8-8-8-8-8--|
|-3-3-3-3-3-3-3-3-6-6-6-6-6-6-6-6-8-8-8-8-8-8-8-8-8-8-8-8-8-8-8-8--|

Chorus (2nd guitar)
|------------------------------------------------------------------|
|------------------------------------------------------------------|
|------------------------------------------------------------------| play
|-7--------------8---------------7-8----------------10--10--8------|  twice
|------------------------------------------------------------------|
|------------------------------------------------------------------|

Post Chorus
|------------------------------------------------------------------|
|------------------------------------------------------------------|
|------------------------------------------------------------------| play
|-3-3-3-3-3-3-3-3-6-6-6-6-6-6-6-6-8-8-8-8-8-8-8-8-8-8-8-8-8-8-8-8--|  twice
|-3-3-3-3-3-3-3-3-6-6-6-6-6-6-6-6-8-8-8-8-8-8-8-8-8-8-8-8-8-8-8-8--|
|-3-3-3-3-3-3-3-3-6-6-6-6-6-6-6-6-8-8-8-8-8-8-8-8-8-8-8-8-8-8-8-8--|

Solo
|----------------------------------------| a few words to the solo--|
|-------------------------------------------------------------------|please notice that nearly every
|-19---17---15---14---14-14-14-14s10--8-----------------------------|note is bended.
|-------------------------------------------------------------------|you should also use a distorted
|-------------------------------------------------------------------|delay-effect or something like
|-------------------------------------------------------------------|that. I'm not sure, if the
                                last part of the solo is 100% correct
|----------------------------|  but I think this version approximates to
|----------------------------|  the original...
|-12--16--12-----------------|
|------------------7--10--18-|
|----------------------------|
|----------------------------|

Solo Accompaniment
|------------------------------------------------------------------|
|------------------------------------------------------------------|
|------------------------------------------------------------------| play
|-3-3-3-3-3-3-3-3-6-6-6-6-6-6-6-6-8-8-8-8-8-8-8-8-8-8-8-8-8-8-8-8--|  twice
|-3-3-3-3-3-3-3-3-6-6-6-6-6-6-6-6-8-8-8-8-8-8-8-8-8-8-8-8-8-8-8-8--|
|-3-3-3-3-3-3-3-3-6-6-6-6-6-6-6-6-8-8-8-8-8-8-8-8-8-8-8-8-8-8-8-8--|

2nd Verse is played without any guitars again.

Pre-Chorus (It's just no good anymore..)
|-----------------------------------------------------------------|
|-----------------------------------------------------------------|
|-----------------------------------------------------------------| play
|-8-8-8-8-8-8-8-8-6-6-6-6-6-6-6-6-3-3-3-3-3-3-3-3-3-3-3-3-3-3-3-3-|  twice
|-8-8-8-8-8-8-8-8-6-6-6-6-6-6-6-6-3-3-3-3-3-3-3-3-3-3-3-3-3-3-3-3-|
|-8-8-8-8-8-8-8-8-6-6-6-6-6-6-6-6-3-3-3-3-3-3-3-3-3-3-3-3-3-3-3-3-|

Chorus (One is the loneliest number..)
|------------------------------------------------------------------|
|------------------------------------------------------------------|
|------------------------------------------------------------------| play
|-3-3-3-3-3-3-3-3-6-6-6-6-6-6-6-6-8-8-8-8-8-8-8-8-8-8-8-8-8-8-8-8--|  twice
|-3-3-3-3-3-3-3-3-6-6-6-6-6-6-6-6-8-8-8-8-8-8-8-8-8-8-8-8-8-8-8-8--|
|-3-3-3-3-3-3-3-3-6-6-6-6-6-6-6-6-8-8-8-8-8-8-8-8-8-8-8-8-8-8-8-8--|

Outro (Solo-Guitar)
|------------------------------------------------------------------|
|------------------------------------------------------------------|
|-17--15--14--12--17--15--14--12--17--15--14--12--17--15--14--12---| play
|------------------------------------------------------------------| 3 times
|-15--13--12--10--15--13--12--10--15--13--12--10--15--13--12--10---|
|------------------------------------------------------------------|

Outro (Main-Guitar)
|------------------------------------------------------------------|
|------------------------------------------------------------------|
|------------------------------------------------------------------| play
|-3-3-3-3-3-3-3-3-6-6-6-6-6-6-6-6-8-8-8-8-8-8-8-8-8-8-8-8-8-8-8-8--| 3 times
|-3-3-3-3-3-3-3-3-6-6-6-6-6-6-6-6-8-8-8-8-8-8-8-8-8-8-8-8-8-8-8-8--|
|-3-3-3-3-3-3-3-3-6-6-6-6-6-6-6-6-8-8-8-8-8-8-8-8-8-8-8-8-8-8-8-8--|





Comments


Popular Filter tabs & chords
Captain Bligh 1 Bass Tabs
Take Another Bass Tabs
Take A Picture 3 Chords
Dose Tabs
Hey Man 1 Tabs
It's Over 1 Tabs
Sand Tabs
Soldiers Of Misfortune Tabs
Take A Picture 3 Tabs
One Ukulele


Song lyrics



↑ Back to top | Tablatures and chords are parodies/interpretations of the original songs. You may use it for private study, scholarship, research or language learning purposes only
© 2014 AZChords.com Contact us | Privacy policy | DMCA | Add/correct tabs | Request tabs | Top 50 tabs